ISO-10303-21;
HEADER;
FILE_DESCRIPTION((''),'2;1');
FILE_NAME('ILC30500066','2005-08-24T',('KR'),(''),
'PRO/ENGINEER BY PARAMETRIC TECHNOLOGY CORPORATION, 2004290',
'PRO/ENGINEER BY PARAMETRIC TECHNOLOGY CORPORATION, 2004290','');
FILE_SCHEMA(('AUTOMOTIVE_DESIGN_CC2 { 1 2 10303 214 -1 1 5 2 }'));
ENDSEC;
DATA;
#1=COLOUR_RGB('',0.E0,0.E0,4.7E-1);
#2=COLOUR_RGB('',0.E0,0.E0,6.E-1);
#3=COLOUR_RGB('',0.E0,0.E0,8.E-1);
#4=DRAUGHTING_PRE_DEFINED_COLOUR('blue');
#5=COLOUR_RGB('',0.E0,2.E-1,1.E0);
#6=COLOUR_RGB('',0.E0,3.3E-1,0.E0);
#7=COLOUR_RGB('',0.E0,3.3E-1,3.3E-1);
#8=COLOUR_RGB('',0.E0,4.E-1,0.E0);
#9=COLOUR_RGB('',0.E0,4.E-1,4.E-1);
#10=COLOUR_RGB('',0.E0,4.E-1,1.E0);
#11=COLOUR_RGB('',0.E0,5.3E-1,5.3E-1);
#12=COLOUR_RGB('',0.E0,6.E-1,0.E0);
#13=COLOUR_RGB('',0.E0,6.E-1,6.E-1);
#14=COLOUR_RGB('',0.E0,6.E-1,1.E0);
#15=COLOUR_RGB('',0.E0,8.E-1,0.E0);
#16=COLOUR_RGB('',0.E0,8.E-1,8.E-1);
#17=COLOUR_RGB('',0.E0,8.E-1,1.E0);
#18=COLOUR_RGB('',0.E0,9.3E-1,0.E0);
#19=COLOUR_RGB('',0.E0,9.3E-1,9.3E-1);
#20=DRAUGHTING_PRE_DEFINED_COLOUR('green');
#21=COLOUR_RGB('',0.E0,1.E0,2.E-1);
#22=COLOUR_RGB('',0.E0,1.E0,4.E-1);
#23=COLOUR_RGB('',0.E0,1.E0,6.E-1);
#24=COLOUR_RGB('',0.E0,1.E0,8.E-1);
#25=DRAUGHTING_PRE_DEFINED_COLOUR('cyan');
#26=COLOUR_RGB('',7.E-2,7.E-2,1.E0);
#27=COLOUR_RGB('',2.E-1,1.E0,0.E0);
#28=COLOUR_RGB('',2.E-1,1.E0,2.E-1);
#29=COLOUR_RGB('',2.E-1,1.E0,1.E0);
#30=COLOUR_RGB('',2.7E-1,0.E0,4.E-1);
#31=COLOUR_RGB('',2.7E-1,2.7E-1,0.E0);
#32=COLOUR_RGB('',2.7E-1,2.7E-1,1.E0);
#33=COLOUR_RGB('',3.3E-1,0.E0,0.E0);
#34=COLOUR_RGB('',3.3E-1,0.E0,3.3E-1);
#35=COLOUR_RGB('',3.3E-1,0.E0,5.3E-1);
#36=COLOUR_RGB('',4.E-1,0.E0,4.E-1);
#37=COLOUR_RGB('',4.E-1,0.E0,6.7E-1);
#38=COLOUR_RGB('',4.E-1,1.3E-1,0.E0);
#39=COLOUR_RGB('',4.E-1,4.E-1,0.E0);
#40=COLOUR_RGB('',4.E-1,4.E-1,1.E0);
#41=COLOUR_RGB('',4.E-1,1.E0,0.E0);
#42=COLOUR_RGB('',4.E-1,1.E0,4.E-1);
#43=COLOUR_RGB('',4.E-1,1.E0,1.E0);
#44=COLOUR_RGB('',4.7E-1,0.E0,0.E0);
#45=COLOUR_RGB('',4.7E-1,0.E0,8.E-1);
#46=COLOUR_RGB('',4.7E-1,0.E0,8.7E-1);
#47=COLOUR_RGB('',4.7E-1,2.E-1,7.E-2);
#48=COLOUR_RGB('',4.7E-1,4.7E-1,4.7E-1);
#49=COLOUR_RGB('',5.3E-1,0.E0,9.3E-1);
#50=COLOUR_RGB('',5.3E-1,2.7E-1,1.3E-1);
#51=COLOUR_RGB('',5.3E-1,5.3E-1,1.E0);
#52=COLOUR_RGB('',6.E-1,0.E0,6.E-1);
#53=COLOUR_RGB('',6.E-1,2.E-1,1.E0);
#54=COLOUR_RGB('',6.E-1,3.3E-1,2.E-1);
#55=COLOUR_RGB('',6.E-1,6.E-1,0.E0);
#56=COLOUR_RGB('',6.E-1,6.E-1,1.E0);
#57=COLOUR_RGB('',6.E-1,1.E0,6.E-1);
#58=COLOUR_RGB('',6.E-1,1.E0,1.E0);
#59=COLOUR_RGB('',6.7E-1,0.E0,0.E0);
#60=COLOUR_RGB('',6.7E-1,0.E0,5.3E-1);
#61=COLOUR_RGB('',6.7E-1,4.E-1,2.7E-1);
#62=COLOUR_RGB('',6.7E-1,4.E-1,1.E0);
#63=COLOUR_RGB('',6.7E-1,6.7E-1,1.E0);
#64=COLOUR_RGB('',6.7E-1,1.E0,0.E0);
#65=COLOUR_RGB('',7.3E-1,2.7E-1,1.E0);
#66=COLOUR_RGB('',7.3E-1,4.E-1,0.E0);
#67=COLOUR_RGB('',7.3E-1,4.7E-1,3.3E-1);
#68=COLOUR_RGB('',7.3E-1,7.3E-1,7.3E-1);
#69=COLOUR_RGB('',8.E-1,0.E0,8.E-1);
#70=COLOUR_RGB('',8.E-1,5.3E-1,4.E-1);
#71=COLOUR_RGB('',8.E-1,6.E-1,1.E0);
#72=COLOUR_RGB('',8.E-1,8.E-1,0.E0);
#73=COLOUR_RGB('',8.E-1,8.E-1,1.E0);
#74=COLOUR_RGB('',8.E-1,1.E0,8.E-1);
#75=COLOUR_RGB('',8.E-1,1.E0,1.E0);
#76=COLOUR_RGB('',8.7E-1,0.E0,0.E0);
#77=COLOUR_RGB('',8.7E-1,6.E-1,4.7E-1);
#78=COLOUR_RGB('',8.8E-1,7.39E-1,0.E0);
#79=COLOUR_RGB('',9.3E-1,0.E0,9.3E-1);
#80=COLOUR_RGB('',9.3E-1,6.7E-1,5.3E-1);
#81=COLOUR_RGB('',9.3E-1,8.E-1,1.E0);
#82=COLOUR_RGB('',9.3E-1,9.3E-1,0.E0);
#83=COLOUR_RGB('',9.3E-1,1.E0,9.3E-1);
#84=COLOUR_RGB('',9.3E-1,1.E0,1.E0);
#85=DRAUGHTING_PRE_DEFINED_COLOUR('red');
#86=COLOUR_RGB('',1.E0,0.E0,2.7E-1);
#87=COLOUR_RGB('',1.E0,0.E0,4.7E-1);
#88=DRAUGHTING_PRE_DEFINED_COLOUR('magenta');
#89=COLOUR_RGB('',1.E0,7.E-2,7.E-2);
#90=COLOUR_RGB('',1.E0,2.E-1,1.E0);
#91=COLOUR_RGB('',1.E0,2.7E-1,0.E0);
#92=COLOUR_RGB('',1.E0,2.7E-1,2.7E-1);
#93=COLOUR_RGB('',1.E0,4.E-1,1.E0);
#94=COLOUR_RGB('',1.E0,4.7E-1,0.E0);
#95=COLOUR_RGB('',1.E0,4.7E-1,4.7E-1);
#96=COLOUR_RGB('',1.E0,4.7E-1,5.3E-1);
#97=COLOUR_RGB('',1.E0,6.E-1,1.E0);
#98=COLOUR_RGB('',1.E0,6.7E-1,0.E0);
#99=COLOUR_RGB('',1.E0,6.7E-1,6.7E-1);
#100=COLOUR_RGB('',1.E0,7.3E-1,5.3E-1);
#101=COLOUR_RGB('',1.E0,7.3E-1,6.E-1);
#102=COLOUR_RGB('',1.E0,8.E-1,8.E-1);
#103=COLOUR_RGB('',1.E0,8.E-1,1.E0);
#104=COLOUR_RGB('',1.E0,8.7E-1,0.E0);
#105=COLOUR_RGB('',1.E0,9.3E-1,9.3E-1);
#106=COLOUR_RGB('',1.E0,9.3E-1,1.E0);
#107=DRAUGHTING_PRE_DEFINED_COLOUR('yellow');
#108=COLOUR_RGB('',1.E0,1.E0,1.3E-1);
#109=COLOUR_RGB('',1.E0,1.E0,3.3E-1);
#110=COLOUR_RGB('',1.E0,1.E0,5.3E-1);
#111=COLOUR_RGB('',1.E0,1.E0,7.3E-1);
#112=COLOUR_RGB('',1.E0,1.E0,9.3E-1);
#114=CARTESIAN_POINT('',(0.E0,0.E0,0.E0));
#115=DIRECTION('',(0.E0,-1.E0,0.E0));
#116=DIRECTION('',(1.E0,0.E0,0.E0));
#117=AXIS2_PLACEMENT_3D('',#114,#115,#116);
#119=DRAUGHTING_PRE_DEFINED_CURVE_FONT('continuous');
#120=CURVE_STYLE('',#119,POSITIVE_LENGTH_MEASURE(2.E-2),#78);
#121=PRESENTATION_STYLE_ASSIGNMENT((#120));
#122=STYLED_ITEM('',(#121),#118);
#123=CARTESIAN_POINT('',(0.E0,0.E0,0.E0));
#124=DIRECTION('',(0.E0,-1.E0,0.E0));
#125=DIRECTION('',(-1.E0,0.E0,0.E0));
#126=AXIS2_PLACEMENT_3D('',#123,#124,#125);
#128=CURVE_STYLE('',#119,POSITIVE_LENGTH_MEASURE(2.E-2),#78);
#129=PRESENTATION_STYLE_ASSIGNMENT((#128));
#130=STYLED_ITEM('',(#129),#127);
#131=CARTESIAN_POINT('',(0.E0,0.E0,0.E0));
#132=DIRECTION('',(0.E0,1.E0,0.E0));
#133=DIRECTION('',(1.E0,0.E0,0.E0));
#134=AXIS2_PLACEMENT_3D('',#131,#132,#133);
#136=CURVE_STYLE('',#119,POSITIVE_LENGTH_MEASURE(2.E-2),#78);
#137=PRESENTATION_STYLE_ASSIGNMENT((#136));
#138=STYLED_ITEM('',(#137),#135);
#139=CARTESIAN_POINT('',(0.E0,2.E-2,0.E0));
#140=DIRECTION('',(0.E0,1.E0,0.E0));
#141=DIRECTION('',(1.E0,0.E0,0.E0));
#142=AXIS2_PLACEMENT_3D('',#139,#140,#141);
#144=CURVE_STYLE('',#119,POSITIVE_LENGTH_MEASURE(2.E-2),#78);
#145=PRESENTATION_STYLE_ASSIGNMENT((#144));
#146=STYLED_ITEM('',(#145),#143);
#147=CARTESIAN_POINT('',(0.E0,0.E0,0.E0));
#148=DIRECTION('',(0.E0,1.E0,0.E0));
#149=DIRECTION('',(-1.E0,0.E0,0.E0));
#150=AXIS2_PLACEMENT_3D('',#147,#148,#149);
#152=CURVE_STYLE('',#119,POSITIVE_LENGTH_MEASURE(2.E-2),#78);
#153=PRESENTATION_STYLE_ASSIGNMENT((#152));
#154=STYLED_ITEM('',(#153),#151);
#155=DIRECTION('',(-7.071067811865E-1,7.071067811865E-1,0.E0));
#156=VECTOR('',#155,2.828427124746E-2);
#157=CARTESIAN_POINT('',(-2.2E-1,0.E0,0.E0));
#158=LINE('',#157,#156);
#159=CURVE_STYLE('',#119,POSITIVE_LENGTH_MEASURE(2.E-2),#78);
#160=PRESENTATION_STYLE_ASSIGNMENT((#159));
#161=STYLED_ITEM('',(#160),#158);
#162=CARTESIAN_POINT('',(0.E0,2.E-2,0.E0));
#163=DIRECTION('',(0.E0,1.E0,0.E0));
#164=DIRECTION('',(-1.E0,0.E0,0.E0));
#165=AXIS2_PLACEMENT_3D('',#162,#163,#164);
#167=CURVE_STYLE('',#119,POSITIVE_LENGTH_MEASURE(2.E-2),#78);
#168=PRESENTATION_STYLE_ASSIGNMENT((#167));
#169=STYLED_ITEM('',(#168),#166);
#170=DIRECTION('',(7.071067811865E-1,7.071067811865E-1,0.E0));
#171=VECTOR('',#170,2.828427124746E-2);
#172=CARTESIAN_POINT('',(2.2E-1,0.E0,0.E0));
#173=LINE('',#172,#171);
#174=CURVE_STYLE('',#119,POSITIVE_LENGTH_MEASURE(2.E-2),#78);
#175=PRESENTATION_STYLE_ASSIGNMENT((#174));
#176=STYLED_ITEM('',(#175),#173);
#177=DIRECTION('',(0.E0,1.E0,0.E0));
#178=VECTOR('',#177,1.05E-1);
#179=CARTESIAN_POINT('',(-2.4E-1,2.E-2,0.E0));
#180=LINE('',#179,#178);
#181=CURVE_STYLE('',#119,POSITIVE_LENGTH_MEASURE(2.E-2),#78);
#182=PRESENTATION_STYLE_ASSIGNMENT((#181));
#183=STYLED_ITEM('',(#182),#180);
#184=DIRECTION('',(0.E0,1.E0,0.E0));
#185=VECTOR('',#184,1.05E-1);
#186=CARTESIAN_POINT('',(2.4E-1,2.E-2,0.E0));
#187=LINE('',#186,#185);
#188=CURVE_STYLE('',#119,POSITIVE_LENGTH_MEASURE(2.E-2),#78);
#189=PRESENTATION_STYLE_ASSIGNMENT((#188));
#190=STYLED_ITEM('',(#189),#187);
#191=CARTESIAN_POINT('',(0.E0,1.25E-1,0.E0));
#192=DIRECTION('',(0.E0,1.E0,0.E0));
#193=DIRECTION('',(1.E0,0.E0,0.E0));
#194=AXIS2_PLACEMENT_3D('',#191,#192,#193);
#196=CURVE_STYLE('',#119,POSITIVE_LENGTH_MEASURE(2.E-2),#78);
#197=PRESENTATION_STYLE_ASSIGNMENT((#196));
#198=STYLED_ITEM('',(#197),#195);
#199=CARTESIAN_POINT('',(0.E0,1.25E-1,0.E0));
#200=DIRECTION('',(0.E0,1.E0,0.E0));
#201=DIRECTION('',(-1.E0,0.E0,0.E0));
#202=AXIS2_PLACEMENT_3D('',#199,#200,#201);
#204=CURVE_STYLE('',#119,POSITIVE_LENGTH_MEASURE(2.E-2),#78);
#205=PRESENTATION_STYLE_ASSIGNMENT((#204));
#206=STYLED_ITEM('',(#205),#203);
#207=CARTESIAN_POINT('',(0.E0,1.25E-1,0.E0));
#208=DIRECTION('',(0.E0,1.E0,0.E0));
#209=DIRECTION('',(1.E0,0.E0,0.E0));
#210=AXIS2_PLACEMENT_3D('',#207,#208,#209);
#212=CURVE_STYLE('',#119,POSITIVE_LENGTH_MEASURE(2.E-2),#78);
#213=PRESENTATION_STYLE_ASSIGNMENT((#212));
#214=STYLED_ITEM('',(#213),#211);
#215=CARTESIAN_POINT('',(0.E0,1.25E-1,0.E0));
#216=DIRECTION('',(0.E0,1.E0,0.E0));
#217=DIRECTION('',(-1.E0,0.E0,0.E0));
#218=AXIS2_PLACEMENT_3D('',#215,#216,#217);
#220=CURVE_STYLE('',#119,POSITIVE_LENGTH_MEASURE(2.E-2),#78);
#221=PRESENTATION_STYLE_ASSIGNMENT((#220));
#222=STYLED_ITEM('',(#221),#219);
#223=DIRECTION('',(0.E0,1.E0,0.E0));
#224=VECTOR('',#223,2.48E-1);
#225=CARTESIAN_POINT('',(2.175E-1,1.25E-1,0.E0));
#226=LINE('',#225,#224);
#227=CURVE_STYLE('',#119,POSITIVE_LENGTH_MEASURE(2.E-2),#78);
#228=PRESENTATION_STYLE_ASSIGNMENT((#227));
#229=STYLED_ITEM('',(#228),#226);
#230=DIRECTION('',(0.E0,1.E0,0.E0));
#231=VECTOR('',#230,2.48E-1);
#232=CARTESIAN_POINT('',(-2.175E-1,1.25E-1,0.E0));
#233=LINE('',#232,#231);
#234=CURVE_STYLE('',#119,POSITIVE_LENGTH_MEASURE(2.E-2),#78);
#235=PRESENTATION_STYLE_ASSIGNMENT((#234));
#236=STYLED_ITEM('',(#235),#233);
#237=CARTESIAN_POINT('',(0.E0,3.73E-1,0.E0));
#238=DIRECTION('',(0.E0,1.E0,0.E0));
#239=DIRECTION('',(1.E0,0.E0,0.E0));
#240=AXIS2_PLACEMENT_3D('',#237,#238,#239);
#242=CURVE_STYLE('',#119,POSITIVE_LENGTH_MEASURE(2.E-2),#78);
#243=PRESENTATION_STYLE_ASSIGNMENT((#242));
#244=STYLED_ITEM('',(#243),#241);
#245=CARTESIAN_POINT('',(0.E0,3.73E-1,0.E0));
#246=DIRECTION('',(0.E0,1.E0,0.E0));
#247=DIRECTION('',(-1.E0,0.E0,0.E0));
#248=AXIS2_PLACEMENT_3D('',#245,#246,#247);
#250=CURVE_STYLE('',#119,POSITIVE_LENGTH_MEASURE(2.E-2),#78);
#251=PRESENTATION_STYLE_ASSIGNMENT((#250));
#252=STYLED_ITEM('',(#251),#249);
#253=CARTESIAN_POINT('',(0.E0,3.73E-1,0.E0));
#254=DIRECTION('',(0.E0,1.E0,0.E0));
#255=DIRECTION('',(1.E0,0.E0,0.E0));
#256=AXIS2_PLACEMENT_3D('',#253,#254,#255);
#258=CURVE_STYLE('',#119,POSITIVE_LENGTH_MEASURE(2.E-2),#78);
#259=PRESENTATION_STYLE_ASSIGNMENT((#258));
#260=STYLED_ITEM('',(#259),#257);
#261=CARTESIAN_POINT('',(0.E0,3.73E-1,0.E0));
#262=DIRECTION('',(0.E0,1.E0,0.E0));
#263=DIRECTION('',(-1.E0,0.E0,0.E0));
#264=AXIS2_PLACEMENT_3D('',#261,#262,#263);
#266=CURVE_STYLE('',#119,POSITIVE_LENGTH_MEASURE(2.E-2),#78);
#267=PRESENTATION_STYLE_ASSIGNMENT((#266));
#268=STYLED_ITEM('',(#267),#265);
#269=DIRECTION('',(0.E0,-1.E0,0.E0));
#270=VECTOR('',#269,1.5E-2);
#271=CARTESIAN_POINT('',(2.025E-1,3.73E-1,0.E0));
#272=LINE('',#271,#270);
#273=CURVE_STYLE('',#119,POSITIVE_LENGTH_MEASURE(2.E-2),#78);
#274=PRESENTATION_STYLE_ASSIGNMENT((#273));
#275=STYLED_ITEM('',(#274),#272);
#276=DIRECTION('',(0.E0,-1.E0,0.E0));
#277=VECTOR('',#276,1.5E-2);
#278=CARTESIAN_POINT('',(-2.025E-1,3.73E-1,0.E0));
#279=LINE('',#278,#277);
#280=CURVE_STYLE('',#119,POSITIVE_LENGTH_MEASURE(2.E-2),#78);
#281=PRESENTATION_STYLE_ASSIGNMENT((#280));
#282=STYLED_ITEM('',(#281),#279);
#283=CARTESIAN_POINT('',(0.E0,3.58E-1,0.E0));
#284=DIRECTION('',(0.E0,1.E0,0.E0));
#285=DIRECTION('',(1.E0,0.E0,0.E0));
#286=AXIS2_PLACEMENT_3D('',#283,#284,#285);
#288=CURVE_STYLE('',#119,POSITIVE_LENGTH_MEASURE(2.E-2),#78);
#289=PRESENTATION_STYLE_ASSIGNMENT((#288));
#290=STYLED_ITEM('',(#289),#287);
#291=CARTESIAN_POINT('',(0.E0,3.58E-1,0.E0));
#292=DIRECTION('',(0.E0,1.E0,0.E0));
#293=DIRECTION('',(-1.E0,0.E0,0.E0));
#294=AXIS2_PLACEMENT_3D('',#291,#292,#293);
#296=CURVE_STYLE('',#119,POSITIVE_LENGTH_MEASURE(2.E-2),#78);
#297=PRESENTATION_STYLE_ASSIGNMENT((#296));
#298=STYLED_ITEM('',(#297),#295);
#299=CARTESIAN_POINT('',(0.E0,3.58E-1,0.E0));
#300=DIRECTION('',(0.E0,1.E0,0.E0));
#301=DIRECTION('',(-1.E0,0.E0,0.E0));
#302=AXIS2_PLACEMENT_3D('',#299,#300,#301);
#304=CURVE_STYLE('',#119,POSITIVE_LENGTH_MEASURE(2.E-2),#78);
#305=PRESENTATION_STYLE_ASSIGNMENT((#304));
#306=STYLED_ITEM('',(#305),#303);
#307=CARTESIAN_POINT('',(0.E0,3.58E-1,0.E0));
#308=DIRECTION('',(0.E0,1.E0,0.E0));
#309=DIRECTION('',(1.E0,0.E0,0.E0));
#310=AXIS2_PLACEMENT_3D('',#307,#308,#309);
#312=CURVE_STYLE('',#119,POSITIVE_LENGTH_MEASURE(2.E-2),#78);
#313=PRESENTATION_STYLE_ASSIGNMENT((#312));
#314=STYLED_ITEM('',(#313),#311);
#315=DIRECTION('',(0.E0,1.E0,0.E0));
#316=VECTOR('',#315,3.58E-1);
#317=CARTESIAN_POINT('',(1.9E-1,0.E0,0.E0));
#318=LINE('',#317,#316);
#319=CURVE_STYLE('',#119,POSITIVE_LENGTH_MEASURE(2.E-2),#78);
#320=PRESENTATION_STYLE_ASSIGNMENT((#319));
#321=STYLED_ITEM('',(#320),#318);
#322=DIRECTION('',(0.E0,1.E0,0.E0));
#323=VECTOR('',#322,3.58E-1);
#324=CARTESIAN_POINT('',(-1.9E-1,0.E0,0.E0));
#325=LINE('',#324,#323);
#326=CURVE_STYLE('',#119,POSITIVE_LENGTH_MEASURE(2.E-2),#78);
#327=PRESENTATION_STYLE_ASSIGNMENT((#326));
#328=STYLED_ITEM('',(#327),#325);
#329=CARTESIAN_POINT('',(1.9E-1,0.E0,0.E0));
#330=CARTESIAN_POINT('',(-1.9E-1,0.E0,0.E0));
#331=VERTEX_POINT('',#329);
#332=VERTEX_POINT('',#330);
#333=CARTESIAN_POINT('',(2.175E-1,3.73E-1,0.E0));
#334=CARTESIAN_POINT('',(-2.175E-1,3.73E-1,0.E0));
#335=VERTEX_POINT('',#333);
#336=VERTEX_POINT('',#334);
#337=CARTESIAN_POINT('',(2.4E-1,1.25E-1,0.E0));
#338=CARTESIAN_POINT('',(-2.4E-1,1.25E-1,0.E0));
#339=VERTEX_POINT('',#337);
#340=VERTEX_POINT('',#338);
#341=CARTESIAN_POINT('',(2.175E-1,1.25E-1,0.E0));
#342=CARTESIAN_POINT('',(-2.175E-1,1.25E-1,0.E0));
#343=VERTEX_POINT('',#341);
#344=VERTEX_POINT('',#342);
#345=CARTESIAN_POINT('',(2.025E-1,3.58E-1,0.E0));
#346=CARTESIAN_POINT('',(-2.025E-1,3.58E-1,0.E0));
#347=VERTEX_POINT('',#345);
#348=VERTEX_POINT('',#346);
#349=CARTESIAN_POINT('',(2.025E-1,3.73E-1,0.E0));
#350=CARTESIAN_POINT('',(-2.025E-1,3.73E-1,0.E0));
#351=VERTEX_POINT('',#349);
#352=VERTEX_POINT('',#350);
#353=CARTESIAN_POINT('',(-1.9E-1,3.58E-1,0.E0));
#354=CARTESIAN_POINT('',(1.9E-1,3.58E-1,0.E0));
#355=VERTEX_POINT('',#353);
#356=VERTEX_POINT('',#354);
#357=CARTESIAN_POINT('',(2.2E-1,0.E0,0.E0));
#358=CARTESIAN_POINT('',(-2.2E-1,0.E0,0.E0));
#359=VERTEX_POINT('',#357);
#360=VERTEX_POINT('',#358);
#361=CARTESIAN_POINT('',(2.4E-1,2.E-2,0.E0));
#362=CARTESIAN_POINT('',(-2.4E-1,2.E-2,0.E0));
#363=VERTEX_POINT('',#361);
#364=VERTEX_POINT('',#362);
#365=CARTESIAN_POINT('',(0.E0,0.E0,0.E0));
#366=DIRECTION('',(0.E0,1.E0,0.E0));
#367=DIRECTION('',(1.E0,0.E0,0.E0));
#368=AXIS2_PLACEMENT_3D('',#365,#366,#367);
#369=PLANE('',#368);
#371=ORIENTED_EDGE('',*,*,#370,.T.);
#373=ORIENTED_EDGE('',*,*,#372,.T.);
#374=EDGE_LOOP('',(#371,#373));
#375=FACE_OUTER_BOUND('',#374,.F.);
#377=ORIENTED_EDGE('',*,*,#376,.T.);
#379=ORIENTED_EDGE('',*,*,#378,.T.);
#380=EDGE_LOOP('',(#377,#379));
#381=FACE_BOUND('',#380,.F.);
#382=ADVANCED_FACE('',(#375,#381),#369,.F.);
#383=CARTESIAN_POINT('',(0.E0,1.E-2,0.E0));
#384=DIRECTION('',(0.E0,1.E0,0.E0));
#385=DIRECTION('',(1.E0,0.E0,0.E0));
#386=AXIS2_PLACEMENT_3D('',#383,#384,#385);
#387=CONICAL_SURFACE('',#386,2.3E-1,4.5E1);
#388=ORIENTED_EDGE('',*,*,#370,.F.);
#390=ORIENTED_EDGE('',*,*,#389,.T.);
#392=ORIENTED_EDGE('',*,*,#391,.T.);
#394=ORIENTED_EDGE('',*,*,#393,.F.);
#395=EDGE_LOOP('',(#388,#390,#392,#394));
#396=FACE_OUTER_BOUND('',#395,.F.);
#397=ADVANCED_FACE('',(#396),#387,.T.);
#398=CARTESIAN_POINT('',(0.E0,1.E-2,0.E0));
#399=DIRECTION('',(0.E0,1.E0,0.E0));
#400=DIRECTION('',(1.E0,0.E0,0.E0));
#401=AXIS2_PLACEMENT_3D('',#398,#399,#400);
#402=CONICAL_SURFACE('',#401,2.3E-1,4.5E1);
#403=ORIENTED_EDGE('',*,*,#372,.F.);
#404=ORIENTED_EDGE('',*,*,#393,.T.);
#406=ORIENTED_EDGE('',*,*,#405,.T.);
#407=ORIENTED_EDGE('',*,*,#389,.F.);
#408=EDGE_LOOP('',(#403,#404,#406,#407));
#409=FACE_OUTER_BOUND('',#408,.F.);
#410=ADVANCED_FACE('',(#409),#402,.T.);
#411=CARTESIAN_POINT('',(0.E0,0.E0,0.E0));
#412=DIRECTION('',(0.E0,1.E0,0.E0));
#413=DIRECTION('',(1.E0,0.E0,0.E0));
#414=AXIS2_PLACEMENT_3D('',#411,#412,#413);
#415=CYLINDRICAL_SURFACE('',#414,2.4E-1);
#416=ORIENTED_EDGE('',*,*,#405,.F.);
#418=ORIENTED_EDGE('',*,*,#417,.T.);
#420=ORIENTED_EDGE('',*,*,#419,.T.);
#422=ORIENTED_EDGE('',*,*,#421,.F.);
#423=EDGE_LOOP('',(#416,#418,#420,#422));
#424=FACE_OUTER_BOUND('',#423,.F.);
#425=ADVANCED_FACE('',(#424),#415,.T.);
#426=CARTESIAN_POINT('',(0.E0,0.E0,0.E0));
#427=DIRECTION('',(0.E0,1.E0,0.E0));
#428=DIRECTION('',(1.E0,0.E0,0.E0));
#429=AXIS2_PLACEMENT_3D('',#426,#427,#428);
#430=CYLINDRICAL_SURFACE('',#429,2.4E-1);
#431=ORIENTED_EDGE('',*,*,#391,.F.);
#432=ORIENTED_EDGE('',*,*,#421,.T.);
#434=ORIENTED_EDGE('',*,*,#433,.T.);
#435=ORIENTED_EDGE('',*,*,#417,.F.);
#436=EDGE_LOOP('',(#431,#432,#434,#435));
#437=FACE_OUTER_BOUND('',#436,.F.);
#438=ADVANCED_FACE('',(#437),#430,.T.);
#439=CARTESIAN_POINT('',(0.E0,1.25E-1,0.E0));
#440=DIRECTION('',(0.E0,1.E0,0.E0));
#441=DIRECTION('',(1.E0,0.E0,0.E0));
#442=AXIS2_PLACEMENT_3D('',#439,#440,#441);
#443=PLANE('',#442);
#444=ORIENTED_EDGE('',*,*,#433,.F.);
#445=ORIENTED_EDGE('',*,*,#419,.F.);
#446=EDGE_LOOP('',(#444,#445));
#447=FACE_OUTER_BOUND('',#446,.F.);
#449=ORIENTED_EDGE('',*,*,#448,.T.);
#451=ORIENTED_EDGE('',*,*,#450,.T.);
#452=EDGE_LOOP('',(#449,#451));
#453=FACE_BOUND('',#452,.F.);
#454=ADVANCED_FACE('',(#447,#453),#443,.T.);
#455=CARTESIAN_POINT('',(0.E0,0.E0,0.E0));
#456=DIRECTION('',(0.E0,1.E0,0.E0));
#457=DIRECTION('',(1.E0,0.E0,0.E0));
#458=AXIS2_PLACEMENT_3D('',#455,#456,#457);
#459=CYLINDRICAL_SURFACE('',#458,2.175E-1);
#460=ORIENTED_EDGE('',*,*,#448,.F.);
#462=ORIENTED_EDGE('',*,*,#461,.T.);
#464=ORIENTED_EDGE('',*,*,#463,.T.);
#466=ORIENTED_EDGE('',*,*,#465,.F.);
#467=EDGE_LOOP('',(#460,#462,#464,#466));
#468=FACE_OUTER_BOUND('',#467,.F.);
#469=ADVANCED_FACE('',(#468),#459,.T.);
#470=CARTESIAN_POINT('',(0.E0,0.E0,0.E0));
#471=DIRECTION('',(0.E0,1.E0,0.E0));
#472=DIRECTION('',(1.E0,0.E0,0.E0));
#473=AXIS2_PLACEMENT_3D('',#470,#471,#472);
#474=CYLINDRICAL_SURFACE('',#473,2.175E-1);
#475=ORIENTED_EDGE('',*,*,#450,.F.);
#476=ORIENTED_EDGE('',*,*,#465,.T.);
#478=ORIENTED_EDGE('',*,*,#477,.T.);
#479=ORIENTED_EDGE('',*,*,#461,.F.);
#480=EDGE_LOOP('',(#475,#476,#478,#479));
#481=FACE_OUTER_BOUND('',#480,.F.);
#482=ADVANCED_FACE('',(#481),#474,.T.);
#483=CARTESIAN_POINT('',(0.E0,3.73E-1,0.E0));
#484=DIRECTION('',(0.E0,1.E0,0.E0));
#485=DIRECTION('',(1.E0,0.E0,0.E0));
#486=AXIS2_PLACEMENT_3D('',#483,#484,#485);
#487=PLANE('',#486);
#488=ORIENTED_EDGE('',*,*,#463,.F.);
#489=ORIENTED_EDGE('',*,*,#477,.F.);
#490=EDGE_LOOP('',(#488,#489));
#491=FACE_OUTER_BOUND('',#490,.F.);
#493=ORIENTED_EDGE('',*,*,#492,.T.);
#495=ORIENTED_EDGE('',*,*,#494,.T.);
#496=EDGE_LOOP('',(#493,#495));
#497=FACE_BOUND('',#496,.F.);
#498=ADVANCED_FACE('',(#491,#497),#487,.T.);
#499=CARTESIAN_POINT('',(0.E0,3.73E-1,0.E0));
#500=DIRECTION('',(0.E0,1.E0,0.E0));
#501=DIRECTION('',(1.E0,0.E0,0.E0));
#502=AXIS2_PLACEMENT_3D('',#499,#500,#501);
#503=CYLINDRICAL_SURFACE('',#502,2.025E-1);
#504=ORIENTED_EDGE('',*,*,#492,.F.);
#506=ORIENTED_EDGE('',*,*,#505,.T.);
#508=ORIENTED_EDGE('',*,*,#507,.T.);
#510=ORIENTED_EDGE('',*,*,#509,.F.);
#511=EDGE_LOOP('',(#504,#506,#508,#510));
#512=FACE_OUTER_BOUND('',#511,.F.);
#513=ADVANCED_FACE('',(#512),#503,.F.);
#514=CARTESIAN_POINT('',(0.E0,3.73E-1,0.E0));
#515=DIRECTION('',(0.E0,1.E0,0.E0));
#516=DIRECTION('',(1.E0,0.E0,0.E0));
#517=AXIS2_PLACEMENT_3D('',#514,#515,#516);
#518=CYLINDRICAL_SURFACE('',#517,2.025E-1);
#519=ORIENTED_EDGE('',*,*,#494,.F.);
#520=ORIENTED_EDGE('',*,*,#509,.T.);
#522=ORIENTED_EDGE('',*,*,#521,.T.);
#523=ORIENTED_EDGE('',*,*,#505,.F.);
#524=EDGE_LOOP('',(#519,#520,#522,#523));
#525=FACE_OUTER_BOUND('',#524,.F.);
#526=ADVANCED_FACE('',(#525),#518,.F.);
#527=CARTESIAN_POINT('',(0.E0,3.58E-1,0.E0));
#528=DIRECTION('',(0.E0,1.E0,0.E0));
#529=DIRECTION('',(1.E0,0.E0,0.E0));
#530=AXIS2_PLACEMENT_3D('',#527,#528,#529);
#531=PLANE('',#530);
#532=ORIENTED_EDGE('',*,*,#507,.F.);
#533=ORIENTED_EDGE('',*,*,#521,.F.);
#534=EDGE_LOOP('',(#532,#533));
#535=FACE_OUTER_BOUND('',#534,.F.);
#537=ORIENTED_EDGE('',*,*,#536,.T.);
#539=ORIENTED_EDGE('',*,*,#538,.T.);
#540=EDGE_LOOP('',(#537,#539));
#541=FACE_BOUND('',#540,.F.);
#542=ADVANCED_FACE('',(#535,#541),#531,.T.);
#543=CARTESIAN_POINT('',(0.E0,0.E0,0.E0));
#544=DIRECTION('',(0.E0,1.E0,0.E0));
#545=DIRECTION('',(1.E0,0.E0,0.E0));
#546=AXIS2_PLACEMENT_3D('',#543,#544,#545);
#547=CYLINDRICAL_SURFACE('',#546,1.9E-1);
#548=ORIENTED_EDGE('',*,*,#536,.F.);
#550=ORIENTED_EDGE('',*,*,#549,.F.);
#551=ORIENTED_EDGE('',*,*,#376,.F.);
#553=ORIENTED_EDGE('',*,*,#552,.T.);
#554=EDGE_LOOP('',(#548,#550,#551,#553));
#555=FACE_OUTER_BOUND('',#554,.F.);
#556=ADVANCED_FACE('',(#555),#547,.F.);
#557=CARTESIAN_POINT('',(0.E0,0.E0,0.E0));
#558=DIRECTION('',(0.E0,1.E0,0.E0));
#559=DIRECTION('',(1.E0,0.E0,0.E0));
#560=AXIS2_PLACEMENT_3D('',#557,#558,#559);
#561=CYLINDRICAL_SURFACE('',#560,1.9E-1);
#562=ORIENTED_EDGE('',*,*,#538,.F.);
#563=ORIENTED_EDGE('',*,*,#552,.F.);
#564=ORIENTED_EDGE('',*,*,#378,.F.);
#565=ORIENTED_EDGE('',*,*,#549,.T.);
#566=EDGE_LOOP('',(#562,#563,#564,#565));
#567=FACE_OUTER_BOUND('',#566,.F.);
#568=ADVANCED_FACE('',(#567),#561,.F.);
#569=CLOSED_SHELL('',(#382,#397,#410,#425,#438,#454,#469,#482,#498,#513,#526,
#542,#556,#568));
#113=STYLED_ITEM('',(#576),#570);
#570=MANIFOLD_SOLID_BREP('',#569);
#571=FILL_AREA_STYLE_COLOUR('',#78);
#572=FILL_AREA_STYLE('',(#571));
#573=SURFACE_STYLE_FILL_AREA(#572);
#574=SURFACE_SIDE_STYLE('',(#573));
#575=SURFACE_STYLE_USAGE(.BOTH.,#574);
#576=PRESENTATION_STYLE_ASSIGNMENT((#575));
#577=DIMENSIONAL_EXPONENTS(1.E0,0.E0,0.E0,0.E0,0.E0,0.E0,0.E0);
#578=(LENGTH_UNIT()NAMED_UNIT(*)SI_UNIT(.MILLI.,.METRE.));
#579=LENGTH_MEASURE_WITH_UNIT(LENGTH_MEASURE(2.54E1),#578);
#580=(CONVERSION_BASED_UNIT('INCH',#579)LENGTH_UNIT()NAMED_UNIT(#577));
#581=DIMENSIONAL_EXPONENTS(0.E0,0.E0,0.E0,0.E0,0.E0,0.E0,0.E0);
#582=(NAMED_UNIT(*)PLANE_ANGLE_UNIT()SI_UNIT($,.RADIAN.));
#583=PLANE_ANGLE_MEASURE_WITH_UNIT(PLANE_ANGLE_MEASURE(1.745329251994E-2),#582);
#584=(CONVERSION_BASED_UNIT('DEGREE',#583)NAMED_UNIT(#581)PLANE_ANGLE_UNIT());
#585=(NAMED_UNIT(*)SI_UNIT($,.STERADIAN.)SOLID_ANGLE_UNIT());
#586=UNCERTAINTY_MEASURE_WITH_UNIT(LENGTH_MEASURE(7.745198555492E-5),#580,
'distance_accuracy_value',
'Maximum model space distance between geometric entities at asserted connectivities');
#587=(GEOMETRIC_REPRESENTATION_CONTEXT(3)GLOBAL_UNCERTAINTY_ASSIGNED_CONTEXT((
#586))GLOBAL_UNIT_ASSIGNED_CONTEXT((#580,#584,#585))REPRESENTATION_CONTEXT
('ID1','3'));
#589=MECHANICAL_DESIGN_GEOMETRIC_PRESENTATION_REPRESENTATION('',(#122,#130,#138,
#146,#154,#161,#169,#176,#183,#190,#198,#206,#214,#222,#229,#236,#244,#252,#260,
#268,#275,#282,#290,#298,#306,#314,#321,#328,#113),#587);
#590=APPLICATION_CONTEXT('automotive_design');
#591=APPLICATION_PROTOCOL_DEFINITION('draft international standard',
'automotive_design',1998,#590);
#592=PRODUCT_DEFINITION_CONTEXT('part definition',#590,'design');
#593=PRODUCT_CONTEXT('',#590,'mechanical');
#594=PRODUCT('ILC30500066','ILC30500066','NOT SPECIFIED',(#593));
#595=PRODUCT_DEFINITION_FORMATION_WITH_SPECIFIED_SOURCE('','LAST_VERSION',#594,
.MADE.);
#599=PRODUCT_TYPE('part','',(#594));
#118=CIRCLE('',#117,1.9E-1);
#127=CIRCLE('',#126,1.9E-1);
#135=CIRCLE('',#134,2.2E-1);
#143=CIRCLE('',#142,2.4E-1);
#151=CIRCLE('',#150,2.2E-1);
#166=CIRCLE('',#165,2.4E-1);
#195=CIRCLE('',#194,2.4E-1);
#203=CIRCLE('',#202,2.4E-1);
#211=CIRCLE('',#210,2.175E-1);
#219=CIRCLE('',#218,2.175E-1);
#241=CIRCLE('',#240,2.175E-1);
#249=CIRCLE('',#248,2.175E-1);
#257=CIRCLE('',#256,2.025E-1);
#265=CIRCLE('',#264,2.025E-1);
#287=CIRCLE('',#286,2.025E-1);
#295=CIRCLE('',#294,2.025E-1);
#303=CIRCLE('',#302,1.9E-1);
#311=CIRCLE('',#310,1.9E-1);
#370=EDGE_CURVE('',#359,#360,#135,.T.);
#372=EDGE_CURVE('',#360,#359,#151,.T.);
#376=EDGE_CURVE('',#331,#332,#118,.T.);
#378=EDGE_CURVE('',#332,#331,#127,.T.);
#389=EDGE_CURVE('',#359,#363,#173,.T.);
#391=EDGE_CURVE('',#363,#364,#143,.T.);
#393=EDGE_CURVE('',#360,#364,#158,.T.);
#405=EDGE_CURVE('',#364,#363,#166,.T.);
#417=EDGE_CURVE('',#364,#340,#180,.T.);
#419=EDGE_CURVE('',#340,#339,#203,.T.);
#421=EDGE_CURVE('',#363,#339,#187,.T.);
#433=EDGE_CURVE('',#339,#340,#195,.T.);
#448=EDGE_CURVE('',#343,#344,#211,.T.);
#450=EDGE_CURVE('',#344,#343,#219,.T.);
#461=EDGE_CURVE('',#343,#335,#226,.T.);
#463=EDGE_CURVE('',#335,#336,#241,.T.);
#465=EDGE_CURVE('',#344,#336,#233,.T.);
#477=EDGE_CURVE('',#336,#335,#249,.T.);
#492=EDGE_CURVE('',#351,#352,#257,.T.);
#494=EDGE_CURVE('',#352,#351,#265,.T.);
#505=EDGE_CURVE('',#351,#347,#272,.T.);
#507=EDGE_CURVE('',#347,#348,#287,.T.);
#509=EDGE_CURVE('',#352,#348,#279,.T.);
#521=EDGE_CURVE('',#348,#347,#295,.T.);
#536=EDGE_CURVE('',#355,#356,#303,.T.);
#538=EDGE_CURVE('',#356,#355,#311,.T.);
#549=EDGE_CURVE('',#332,#355,#325,.T.);
#552=EDGE_CURVE('',#331,#356,#318,.T.);
#588=ADVANCED_BREP_SHAPE_REPRESENTATION('',(#570),#587);
#596=PRODUCT_DEFINITION('part definition','',#595,#592);
#597=PRODUCT_DEFINITION_SHAPE('','SHAPE FOR ILC30500066.',#596);
#598=SHAPE_DEFINITION_REPRESENTATION(#597,#588);
ENDSEC;
END-ISO-10303-21;
