ISO-10303-21;
HEADER;
FILE_DESCRIPTION((''),'2;1');
FILE_NAME('ILC64210410','2005-06-27T',('KR'),(''),
'PRO/ENGINEER BY PARAMETRIC TECHNOLOGY CORPORATION, 2004290',
'PRO/ENGINEER BY PARAMETRIC TECHNOLOGY CORPORATION, 2004290','');
FILE_SCHEMA(('AUTOMOTIVE_DESIGN_CC2 { 1 2 10303 214 -1 1 5 2 }'));
ENDSEC;
DATA;
#1=COLOUR_RGB('',0.E0,0.E0,4.7E-1);
#2=COLOUR_RGB('',0.E0,0.E0,6.E-1);
#3=COLOUR_RGB('',0.E0,0.E0,8.E-1);
#4=DRAUGHTING_PRE_DEFINED_COLOUR('blue');
#5=COLOUR_RGB('',0.E0,2.E-1,1.E0);
#6=COLOUR_RGB('',0.E0,3.3E-1,0.E0);
#7=COLOUR_RGB('',0.E0,3.3E-1,3.3E-1);
#8=COLOUR_RGB('',0.E0,4.E-1,0.E0);
#9=COLOUR_RGB('',0.E0,4.E-1,4.E-1);
#10=COLOUR_RGB('',0.E0,4.E-1,1.E0);
#11=COLOUR_RGB('',0.E0,5.3E-1,5.3E-1);
#12=COLOUR_RGB('',0.E0,6.E-1,0.E0);
#13=COLOUR_RGB('',0.E0,6.E-1,6.E-1);
#14=COLOUR_RGB('',0.E0,6.E-1,1.E0);
#15=COLOUR_RGB('',0.E0,8.E-1,0.E0);
#16=COLOUR_RGB('',0.E0,8.E-1,8.E-1);
#17=COLOUR_RGB('',0.E0,8.E-1,1.E0);
#18=COLOUR_RGB('',0.E0,9.3E-1,0.E0);
#19=COLOUR_RGB('',0.E0,9.3E-1,9.3E-1);
#20=DRAUGHTING_PRE_DEFINED_COLOUR('green');
#21=COLOUR_RGB('',0.E0,1.E0,2.E-1);
#22=COLOUR_RGB('',0.E0,1.E0,4.E-1);
#23=COLOUR_RGB('',0.E0,1.E0,6.E-1);
#24=COLOUR_RGB('',0.E0,1.E0,8.E-1);
#25=DRAUGHTING_PRE_DEFINED_COLOUR('cyan');
#26=COLOUR_RGB('',7.E-2,7.E-2,1.E0);
#27=COLOUR_RGB('',2.E-1,1.E0,0.E0);
#28=COLOUR_RGB('',2.E-1,1.E0,2.E-1);
#29=COLOUR_RGB('',2.E-1,1.E0,1.E0);
#30=COLOUR_RGB('',2.7E-1,0.E0,4.E-1);
#31=COLOUR_RGB('',2.7E-1,2.7E-1,0.E0);
#32=COLOUR_RGB('',2.7E-1,2.7E-1,1.E0);
#33=COLOUR_RGB('',3.3E-1,0.E0,0.E0);
#34=COLOUR_RGB('',3.3E-1,0.E0,3.3E-1);
#35=COLOUR_RGB('',3.3E-1,0.E0,5.3E-1);
#36=COLOUR_RGB('',4.E-1,0.E0,4.E-1);
#37=COLOUR_RGB('',4.E-1,0.E0,6.7E-1);
#38=COLOUR_RGB('',4.E-1,1.3E-1,0.E0);
#39=COLOUR_RGB('',4.E-1,4.E-1,0.E0);
#40=COLOUR_RGB('',4.E-1,4.E-1,1.E0);
#41=COLOUR_RGB('',4.E-1,1.E0,0.E0);
#42=COLOUR_RGB('',4.E-1,1.E0,4.E-1);
#43=COLOUR_RGB('',4.E-1,1.E0,1.E0);
#44=COLOUR_RGB('',4.7E-1,0.E0,0.E0);
#45=COLOUR_RGB('',4.7E-1,0.E0,8.E-1);
#46=COLOUR_RGB('',4.7E-1,0.E0,8.7E-1);
#47=COLOUR_RGB('',4.7E-1,2.E-1,7.E-2);
#48=COLOUR_RGB('',4.7E-1,4.7E-1,4.7E-1);
#49=COLOUR_RGB('',5.3E-1,0.E0,9.3E-1);
#50=COLOUR_RGB('',5.3E-1,2.7E-1,1.3E-1);
#51=COLOUR_RGB('',5.3E-1,5.3E-1,1.E0);
#52=COLOUR_RGB('',6.E-1,0.E0,6.E-1);
#53=COLOUR_RGB('',6.E-1,2.E-1,1.E0);
#54=COLOUR_RGB('',6.E-1,3.3E-1,2.E-1);
#55=COLOUR_RGB('',6.E-1,6.E-1,0.E0);
#56=COLOUR_RGB('',6.E-1,6.E-1,1.E0);
#57=COLOUR_RGB('',6.E-1,1.E0,6.E-1);
#58=COLOUR_RGB('',6.E-1,1.E0,1.E0);
#59=COLOUR_RGB('',6.7E-1,0.E0,0.E0);
#60=COLOUR_RGB('',6.7E-1,0.E0,5.3E-1);
#61=COLOUR_RGB('',6.7E-1,4.E-1,2.7E-1);
#62=COLOUR_RGB('',6.7E-1,4.E-1,1.E0);
#63=COLOUR_RGB('',6.7E-1,6.7E-1,1.E0);
#64=COLOUR_RGB('',6.7E-1,1.E0,0.E0);
#65=COLOUR_RGB('',7.3E-1,2.7E-1,1.E0);
#66=COLOUR_RGB('',7.3E-1,4.E-1,0.E0);
#67=COLOUR_RGB('',7.3E-1,4.7E-1,3.3E-1);
#68=COLOUR_RGB('',7.3E-1,7.3E-1,7.3E-1);
#69=COLOUR_RGB('',8.E-1,0.E0,8.E-1);
#70=COLOUR_RGB('',8.E-1,5.3E-1,4.E-1);
#71=COLOUR_RGB('',8.E-1,6.E-1,1.E0);
#72=COLOUR_RGB('',8.E-1,8.E-1,0.E0);
#73=COLOUR_RGB('',8.E-1,8.E-1,1.E0);
#74=COLOUR_RGB('',8.E-1,1.E0,8.E-1);
#75=COLOUR_RGB('',8.E-1,1.E0,1.E0);
#76=COLOUR_RGB('',8.7E-1,0.E0,0.E0);
#77=COLOUR_RGB('',8.7E-1,6.E-1,4.7E-1);
#78=COLOUR_RGB('',9.3E-1,0.E0,9.3E-1);
#79=COLOUR_RGB('',9.3E-1,6.7E-1,5.3E-1);
#80=COLOUR_RGB('',9.3E-1,8.E-1,1.E0);
#81=COLOUR_RGB('',9.3E-1,9.3E-1,0.E0);
#82=COLOUR_RGB('',9.3E-1,1.E0,9.3E-1);
#83=COLOUR_RGB('',9.3E-1,1.E0,1.E0);
#84=DRAUGHTING_PRE_DEFINED_COLOUR('red');
#85=COLOUR_RGB('',1.E0,0.E0,2.7E-1);
#86=COLOUR_RGB('',1.E0,0.E0,4.7E-1);
#87=DRAUGHTING_PRE_DEFINED_COLOUR('magenta');
#88=COLOUR_RGB('',1.E0,7.E-2,7.E-2);
#89=COLOUR_RGB('',1.E0,2.E-1,1.E0);
#90=COLOUR_RGB('',1.E0,2.7E-1,0.E0);
#91=COLOUR_RGB('',1.E0,2.7E-1,2.7E-1);
#92=COLOUR_RGB('',1.E0,4.E-1,1.E0);
#93=COLOUR_RGB('',1.E0,4.7E-1,0.E0);
#94=COLOUR_RGB('',1.E0,4.7E-1,4.7E-1);
#95=COLOUR_RGB('',1.E0,4.7E-1,5.3E-1);
#96=COLOUR_RGB('',1.E0,6.E-1,1.E0);
#97=COLOUR_RGB('',1.E0,6.7E-1,0.E0);
#98=COLOUR_RGB('',1.E0,6.7E-1,6.7E-1);
#99=COLOUR_RGB('',1.E0,7.3E-1,5.3E-1);
#100=COLOUR_RGB('',1.E0,7.3E-1,6.E-1);
#101=COLOUR_RGB('',1.E0,8.E-1,8.E-1);
#102=COLOUR_RGB('',1.E0,8.E-1,1.E0);
#103=COLOUR_RGB('',1.E0,8.7E-1,0.E0);
#104=COLOUR_RGB('',1.E0,9.3E-1,9.3E-1);
#105=COLOUR_RGB('',1.E0,9.3E-1,1.E0);
#106=DRAUGHTING_PRE_DEFINED_COLOUR('yellow');
#107=COLOUR_RGB('',1.E0,1.E0,1.3E-1);
#108=COLOUR_RGB('',1.E0,1.E0,3.3E-1);
#109=COLOUR_RGB('',1.E0,1.E0,5.3E-1);
#110=COLOUR_RGB('',1.E0,1.E0,7.3E-1);
#111=COLOUR_RGB('',1.E0,1.E0,9.3E-1);
#112=DIRECTION('',(8.660254037844E-1,5.E-1,0.E0));
#113=VECTOR('',#112,2.886751345948E-1);
#114=CARTESIAN_POINT('',(-2.5E-1,1.443375672974E-1,0.E0));
#115=LINE('',#114,#113);
#116=DIRECTION('',(8.660254037844E-1,-5.E-1,0.E0));
#117=VECTOR('',#116,2.886751345948E-1);
#118=CARTESIAN_POINT('',(0.E0,2.886751345948E-1,0.E0));
#119=LINE('',#118,#117);
#120=DIRECTION('',(0.E0,-1.E0,0.E0));
#121=VECTOR('',#120,2.886751345948E-1);
#122=CARTESIAN_POINT('',(2.5E-1,1.443375672974E-1,0.E0));
#123=LINE('',#122,#121);
#124=DIRECTION('',(-8.660254037844E-1,-5.E-1,0.E0));
#125=VECTOR('',#124,2.886751345948E-1);
#126=CARTESIAN_POINT('',(2.5E-1,-1.443375672974E-1,0.E0));
#127=LINE('',#126,#125);
#128=DIRECTION('',(-8.660254037844E-1,5.E-1,0.E0));
#129=VECTOR('',#128,2.886751345948E-1);
#130=CARTESIAN_POINT('',(0.E0,-2.886751345948E-1,0.E0));
#131=LINE('',#130,#129);
#132=DIRECTION('',(0.E0,1.E0,0.E0));
#133=VECTOR('',#132,2.886751345948E-1);
#134=CARTESIAN_POINT('',(-2.5E-1,-1.443375672974E-1,0.E0));
#135=LINE('',#134,#133);
#136=CARTESIAN_POINT('',(0.E0,0.E0,0.E0));
#137=DIRECTION('',(0.E0,0.E0,-1.E0));
#138=DIRECTION('',(0.E0,1.E0,0.E0));
#139=AXIS2_PLACEMENT_3D('',#136,#137,#138);
#141=CARTESIAN_POINT('',(0.E0,0.E0,0.E0));
#142=DIRECTION('',(0.E0,0.E0,-1.E0));
#143=DIRECTION('',(0.E0,-1.E0,0.E0));
#144=AXIS2_PLACEMENT_3D('',#141,#142,#143);
#146=DIRECTION('',(0.E0,0.E0,-1.E0));
#147=VECTOR('',#146,1.466954224947E-1);
#148=CARTESIAN_POINT('',(-2.5E-1,1.443375672974E-1,0.E0));
#149=LINE('',#148,#147);
#150=CARTESIAN_POINT('',(-1.25E-1,2.165063509461E-1,4.02E-1));
#151=DIRECTION('',(-5.E-1,8.660254037844E-1,0.E0));
#152=DIRECTION('',(2.203177687559E-1,1.272005230985E-1,-9.670988096849E-1));
#153=AXIS2_PLACEMENT_3D('',#150,#151,#152);
#155=CARTESIAN_POINT('',(-2.5E-1,0.E0,4.02E-1));
#156=DIRECTION('',(-1.E0,0.E0,0.E0));
#157=DIRECTION('',(0.E0,2.544010461969E-1,-9.670988096849E-1));
#158=AXIS2_PLACEMENT_3D('',#155,#156,#157);
#160=CARTESIAN_POINT('',(-1.25E-1,-2.165063509461E-1,4.02E-1));
#161=DIRECTION('',(-5.E-1,-8.660254037844E-1,0.E0));
#162=DIRECTION('',(-2.203177687559E-1,1.272005230985E-1,-9.670988096849E-1));
#163=AXIS2_PLACEMENT_3D('',#160,#161,#162);
#165=DIRECTION('',(0.E0,0.E0,-1.E0));
#166=VECTOR('',#165,1.466954224947E-1);
#167=CARTESIAN_POINT('',(-2.5E-1,-1.443375672974E-1,0.E0));
#168=LINE('',#167,#166);
#169=DIRECTION('',(0.E0,0.E0,-1.E0));
#170=VECTOR('',#169,1.466954224947E-1);
#171=CARTESIAN_POINT('',(0.E0,-2.886751345948E-1,0.E0));
#172=LINE('',#171,#170);
#173=DIRECTION('',(0.E0,0.E0,-1.E0));
#174=VECTOR('',#173,1.466954224947E-1);
#175=CARTESIAN_POINT('',(2.5E-1,-1.443375672974E-1,0.E0));
#176=LINE('',#175,#174);
#177=CARTESIAN_POINT('',(1.25E-1,2.165063509461E-1,4.02E-1));
#178=DIRECTION('',(5.E-1,8.660254037844E-1,0.E0));
#179=DIRECTION('',(2.203177687559E-1,-1.272005230985E-1,-9.670988096849E-1));
#180=AXIS2_PLACEMENT_3D('',#177,#178,#179);
#182=CARTESIAN_POINT('',(0.E0,0.E0,4.02E-1));
#183=DIRECTION('',(-1.E0,0.E0,0.E0));
#184=DIRECTION('',(0.E0,4.656050557981E-1,-8.849926169270E-1));
#185=AXIS2_PLACEMENT_3D('',#182,#183,#184);
#187=CARTESIAN_POINT('',(0.E0,0.E0,4.02E-1));
#188=DIRECTION('',(1.E0,0.E0,0.E0));
#189=DIRECTION('',(0.E0,-4.656050557981E-1,-8.849926169270E-1));
#190=AXIS2_PLACEMENT_3D('',#187,#188,#189);
#192=CARTESIAN_POINT('',(1.25E-1,-2.165063509461E-1,4.02E-1));
#193=DIRECTION('',(5.E-1,-8.660254037844E-1,0.E0));
#194=DIRECTION('',(-2.203177687559E-1,-1.272005230985E-1,-9.670988096849E-1));
#195=AXIS2_PLACEMENT_3D('',#192,#193,#194);
#197=CARTESIAN_POINT('',(2.5E-1,0.E0,4.02E-1));
#198=DIRECTION('',(1.E0,0.E0,0.E0));
#199=DIRECTION('',(0.E0,-2.544010461969E-1,-9.670988096849E-1));
#200=AXIS2_PLACEMENT_3D('',#197,#198,#199);
#202=DIRECTION('',(0.E0,0.E0,-1.E0));
#203=VECTOR('',#202,1.466954224947E-1);
#204=CARTESIAN_POINT('',(0.E0,2.886751345948E-1,0.E0));
#205=LINE('',#204,#203);
#206=DIRECTION('',(0.E0,0.E0,-1.E0));
#207=VECTOR('',#206,1.466954224947E-1);
#208=CARTESIAN_POINT('',(2.5E-1,1.443375672974E-1,0.E0));
#209=LINE('',#208,#207);
#210=CARTESIAN_POINT('',(0.E0,1.09E-1,1.5E-2));
#211=DIRECTION('',(-1.E0,0.E0,0.E0));
#212=DIRECTION('',(0.E0,0.E0,-1.E0));
#213=AXIS2_PLACEMENT_3D('',#210,#211,#212);
#215=CARTESIAN_POINT('',(0.E0,-1.09E-1,1.5E-2));
#216=DIRECTION('',(1.E0,0.E0,0.E0));
#217=DIRECTION('',(0.E0,0.E0,-1.E0));
#218=AXIS2_PLACEMENT_3D('',#215,#216,#217);
#220=DIRECTION('',(0.E0,0.E0,1.E0));
#221=VECTOR('',#220,6.3E-2);
#222=CARTESIAN_POINT('',(0.E0,9.4E-2,1.5E-2));
#223=LINE('',#222,#221);
#224=DIRECTION('',(0.E0,0.E0,1.E0));
#225=VECTOR('',#224,6.3E-2);
#226=CARTESIAN_POINT('',(0.E0,-9.4E-2,1.5E-2));
#227=LINE('',#226,#225);
#228=CARTESIAN_POINT('',(0.E0,0.E0,1.5E-2));
#229=DIRECTION('',(0.E0,0.E0,1.E0));
#230=DIRECTION('',(0.E0,1.E0,0.E0));
#231=AXIS2_PLACEMENT_3D('',#228,#229,#230);
#233=CARTESIAN_POINT('',(0.E0,0.E0,1.5E-2));
#234=DIRECTION('',(0.E0,0.E0,-1.E0));
#235=DIRECTION('',(0.E0,1.E0,0.E0));
#236=AXIS2_PLACEMENT_3D('',#233,#234,#235);
#238=CARTESIAN_POINT('',(0.E0,0.E0,7.8E-2));
#239=DIRECTION('',(0.E0,0.E0,-1.E0));
#240=DIRECTION('',(0.E0,1.E0,0.E0));
#241=AXIS2_PLACEMENT_3D('',#238,#239,#240);
#243=DIRECTION('',(0.E0,7.071067811865E-1,7.071067811865E-1));
#244=VECTOR('',#243,4.030508652763E-2);
#245=CARTESIAN_POINT('',(0.E0,9.4E-2,7.8E-2));
#246=LINE('',#245,#244);
#247=DIRECTION('',(0.E0,-7.071067811865E-1,7.071067811865E-1));
#248=VECTOR('',#247,4.030508652763E-2);
#249=CARTESIAN_POINT('',(0.E0,-9.4E-2,7.8E-2));
#250=LINE('',#249,#248);
#251=CARTESIAN_POINT('',(0.E0,0.E0,7.8E-2));
#252=DIRECTION('',(0.E0,0.E0,1.E0));
#253=DIRECTION('',(0.E0,1.E0,0.E0));
#254=AXIS2_PLACEMENT_3D('',#251,#252,#253);
#256=DIRECTION('',(0.E0,0.E0,1.E0));
#257=VECTOR('',#256,1.15E-1);
#258=CARTESIAN_POINT('',(0.E0,1.225E-1,1.065E-1));
#259=LINE('',#258,#257);
#260=DIRECTION('',(0.E0,0.E0,1.E0));
#261=VECTOR('',#260,1.15E-1);
#262=CARTESIAN_POINT('',(0.E0,-1.225E-1,1.065E-1));
#263=LINE('',#262,#261);
#264=CARTESIAN_POINT('',(0.E0,0.E0,1.065E-1));
#265=DIRECTION('',(0.E0,0.E0,1.E0));
#266=DIRECTION('',(0.E0,1.E0,0.E0));
#267=AXIS2_PLACEMENT_3D('',#264,#265,#266);
#269=CARTESIAN_POINT('',(0.E0,0.E0,1.065E-1));
#270=DIRECTION('',(0.E0,0.E0,-1.E0));
#271=DIRECTION('',(0.E0,1.E0,0.E0));
#272=AXIS2_PLACEMENT_3D('',#269,#270,#271);
#274=CARTESIAN_POINT('',(0.E0,0.E0,2.215E-1));
#275=DIRECTION('',(0.E0,0.E0,-1.E0));
#276=DIRECTION('',(0.E0,1.E0,0.E0));
#277=AXIS2_PLACEMENT_3D('',#274,#275,#276);
#279=DIRECTION('',(0.E0,-7.071067811865E-1,7.071067811865E-1));
#280=VECTOR('',#279,4.030508652763E-2);
#281=CARTESIAN_POINT('',(0.E0,1.225E-1,2.215E-1));
#282=LINE('',#281,#280);
#283=DIRECTION('',(0.E0,7.071067811865E-1,7.071067811865E-1));
#284=VECTOR('',#283,4.030508652763E-2);
#285=CARTESIAN_POINT('',(0.E0,-1.225E-1,2.215E-1));
#286=LINE('',#285,#284);
#287=CARTESIAN_POINT('',(0.E0,0.E0,2.215E-1));
#288=DIRECTION('',(0.E0,0.E0,1.E0));
#289=DIRECTION('',(0.E0,1.E0,0.E0));
#290=AXIS2_PLACEMENT_3D('',#287,#288,#289);
#292=CARTESIAN_POINT('',(0.E0,0.E0,2.5E-1));
#293=DIRECTION('',(0.E0,0.E0,1.E0));
#294=DIRECTION('',(0.E0,1.E0,0.E0));
#295=AXIS2_PLACEMENT_3D('',#292,#293,#294);
#297=CARTESIAN_POINT('',(0.E0,0.E0,2.5E-1));
#298=DIRECTION('',(0.E0,0.E0,-1.E0));
#299=DIRECTION('',(0.E0,1.E0,0.E0));
#300=AXIS2_PLACEMENT_3D('',#297,#298,#299);
#302=CARTESIAN_POINT('',(-2.5E-1,1.443375672974E-1,0.E0));
#303=CARTESIAN_POINT('',(0.E0,2.886751345948E-1,0.E0));
#304=VERTEX_POINT('',#302);
#305=VERTEX_POINT('',#303);
#306=CARTESIAN_POINT('',(2.5E-1,1.443375672974E-1,0.E0));
#307=VERTEX_POINT('',#306);
#308=CARTESIAN_POINT('',(2.5E-1,-1.443375672974E-1,0.E0));
#309=VERTEX_POINT('',#308);
#310=CARTESIAN_POINT('',(0.E0,-2.886751345948E-1,0.E0));
#311=VERTEX_POINT('',#310);
#312=CARTESIAN_POINT('',(-2.5E-1,-1.443375672974E-1,0.E0));
#313=VERTEX_POINT('',#312);
#314=CARTESIAN_POINT('',(0.E0,9.4E-2,1.5E-2));
#315=CARTESIAN_POINT('',(0.E0,9.4E-2,7.8E-2));
#316=VERTEX_POINT('',#314);
#317=VERTEX_POINT('',#315);
#318=CARTESIAN_POINT('',(0.E0,1.225E-1,1.065E-1));
#319=VERTEX_POINT('',#318);
#320=CARTESIAN_POINT('',(0.E0,1.225E-1,2.215E-1));
#321=VERTEX_POINT('',#320);
#322=CARTESIAN_POINT('',(0.E0,9.4E-2,2.5E-1));
#323=VERTEX_POINT('',#322);
#324=CARTESIAN_POINT('',(0.E0,-9.4E-2,1.5E-2));
#325=CARTESIAN_POINT('',(0.E0,-9.4E-2,7.8E-2));
#326=VERTEX_POINT('',#324);
#327=VERTEX_POINT('',#325);
#328=CARTESIAN_POINT('',(0.E0,-1.225E-1,1.065E-1));
#329=VERTEX_POINT('',#328);
#330=CARTESIAN_POINT('',(0.E0,-1.225E-1,2.215E-1));
#331=VERTEX_POINT('',#330);
#332=CARTESIAN_POINT('',(0.E0,-9.4E-2,2.5E-1));
#333=VERTEX_POINT('',#332);
#334=CARTESIAN_POINT('',(0.E0,1.09E-1,0.E0));
#335=CARTESIAN_POINT('',(0.E0,-1.09E-1,0.E0));
#336=VERTEX_POINT('',#334);
#337=VERTEX_POINT('',#335);
#338=CARTESIAN_POINT('',(0.E0,2.886751345948E-1,-1.466954224947E-1));
#339=CARTESIAN_POINT('',(-2.5E-1,1.443375672974E-1,-1.466954224947E-1));
#340=VERTEX_POINT('',#338);
#341=VERTEX_POINT('',#339);
#342=CARTESIAN_POINT('',(2.5E-1,1.443375672974E-1,-1.466954224947E-1));
#343=VERTEX_POINT('',#342);
#344=CARTESIAN_POINT('',(2.5E-1,-1.443375672974E-1,-1.466954224947E-1));
#345=VERTEX_POINT('',#344);
#346=CARTESIAN_POINT('',(0.E0,-2.886751345948E-1,-1.466954224947E-1));
#347=VERTEX_POINT('',#346);
#348=CARTESIAN_POINT('',(-2.5E-1,-1.443375672974E-1,-1.466954224947E-1));
#349=VERTEX_POINT('',#348);
#350=CARTESIAN_POINT('',(0.E0,0.E0,-2.18E-1));
#351=VERTEX_POINT('',#350);
#352=CARTESIAN_POINT('',(0.E0,0.E0,0.E0));
#353=DIRECTION('',(0.E0,0.E0,-1.E0));
#354=DIRECTION('',(0.E0,-1.E0,0.E0));
#355=AXIS2_PLACEMENT_3D('',#352,#353,#354);
#356=PLANE('',#355);
#358=ORIENTED_EDGE('',*,*,#357,.T.);
#360=ORIENTED_EDGE('',*,*,#359,.T.);
#362=ORIENTED_EDGE('',*,*,#361,.T.);
#364=ORIENTED_EDGE('',*,*,#363,.T.);
#366=ORIENTED_EDGE('',*,*,#365,.T.);
#368=ORIENTED_EDGE('',*,*,#367,.T.);
#369=EDGE_LOOP('',(#358,#360,#362,#364,#366,#368));
#370=FACE_OUTER_BOUND('',#369,.F.);
#372=ORIENTED_EDGE('',*,*,#371,.F.);
#374=ORIENTED_EDGE('',*,*,#373,.F.);
#375=EDGE_LOOP('',(#372,#374));
#376=FACE_BOUND('',#375,.F.);
#377=ADVANCED_FACE('',(#370,#376),#356,.F.);
#378=CARTESIAN_POINT('',(-2.5E-1,1.443375672974E-1,0.E0));
#379=DIRECTION('',(-5.E-1,8.660254037844E-1,0.E0));
#380=DIRECTION('',(8.660254037844E-1,5.E-1,0.E0));
#381=AXIS2_PLACEMENT_3D('',#378,#379,#380);
#382=PLANE('',#381);
#384=ORIENTED_EDGE('',*,*,#383,.F.);
#386=ORIENTED_EDGE('',*,*,#385,.F.);
#387=ORIENTED_EDGE('',*,*,#357,.F.);
#389=ORIENTED_EDGE('',*,*,#388,.T.);
#390=EDGE_LOOP('',(#384,#386,#387,#389));
#391=FACE_OUTER_BOUND('',#390,.F.);
#392=ADVANCED_FACE('',(#391),#382,.T.);
#393=CARTESIAN_POINT('',(0.E0,0.E0,4.02E-1));
#394=DIRECTION('',(0.E0,0.E0,1.E0));
#395=DIRECTION('',(0.E0,1.E0,0.E0));
#396=AXIS2_PLACEMENT_3D('',#393,#394,#395);
#397=SPHERICAL_SURFACE('',#396,6.2E-1);
#398=ORIENTED_EDGE('',*,*,#383,.T.);
#400=ORIENTED_EDGE('',*,*,#399,.T.);
#402=ORIENTED_EDGE('',*,*,#401,.T.);
#404=ORIENTED_EDGE('',*,*,#403,.T.);
#406=ORIENTED_EDGE('',*,*,#405,.F.);
#407=EDGE_LOOP('',(#398,#400,#402,#404,#406));
#408=FACE_OUTER_BOUND('',#407,.F.);
#409=ADVANCED_FACE('',(#408),#397,.T.);
#410=CARTESIAN_POINT('',(-2.5E-1,-1.443375672974E-1,0.E0));
#411=DIRECTION('',(-1.E0,0.E0,0.E0));
#412=DIRECTION('',(0.E0,1.E0,0.E0));
#413=AXIS2_PLACEMENT_3D('',#410,#411,#412);
#414=PLANE('',#413);
#415=ORIENTED_EDGE('',*,*,#399,.F.);
#416=ORIENTED_EDGE('',*,*,#388,.F.);
#417=ORIENTED_EDGE('',*,*,#367,.F.);
#419=ORIENTED_EDGE('',*,*,#418,.T.);
#420=EDGE_LOOP('',(#415,#416,#417,#419));
#421=FACE_OUTER_BOUND('',#420,.F.);
#422=ADVANCED_FACE('',(#421),#414,.T.);
#423=CARTESIAN_POINT('',(0.E0,-2.886751345948E-1,0.E0));
#424=DIRECTION('',(-5.E-1,-8.660254037844E-1,0.E0));
#425=DIRECTION('',(-8.660254037844E-1,5.E-1,0.E0));
#426=AXIS2_PLACEMENT_3D('',#423,#424,#425);
#427=PLANE('',#426);
#428=ORIENTED_EDGE('',*,*,#401,.F.);
#429=ORIENTED_EDGE('',*,*,#418,.F.);
#430=ORIENTED_EDGE('',*,*,#365,.F.);
#432=ORIENTED_EDGE('',*,*,#431,.T.);
#433=EDGE_LOOP('',(#428,#429,#430,#432));
#434=FACE_OUTER_BOUND('',#433,.F.);
#435=ADVANCED_FACE('',(#434),#427,.T.);
#436=CARTESIAN_POINT('',(2.5E-1,-1.443375672974E-1,0.E0));
#437=DIRECTION('',(5.E-1,-8.660254037844E-1,0.E0));
#438=DIRECTION('',(-8.660254037844E-1,-5.E-1,0.E0));
#439=AXIS2_PLACEMENT_3D('',#436,#437,#438);
#440=PLANE('',#439);
#442=ORIENTED_EDGE('',*,*,#441,.F.);
#443=ORIENTED_EDGE('',*,*,#431,.F.);
#444=ORIENTED_EDGE('',*,*,#363,.F.);
#446=ORIENTED_EDGE('',*,*,#445,.T.);
#447=EDGE_LOOP('',(#442,#443,#444,#446));
#448=FACE_OUTER_BOUND('',#447,.F.);
#449=ADVANCED_FACE('',(#448),#440,.T.);
#450=CARTESIAN_POINT('',(0.E0,0.E0,4.02E-1));
#451=DIRECTION('',(0.E0,0.E0,1.E0));
#452=DIRECTION('',(0.E0,1.E0,0.E0));
#453=AXIS2_PLACEMENT_3D('',#450,#451,#452);
#454=SPHERICAL_SURFACE('',#453,6.2E-1);
#456=ORIENTED_EDGE('',*,*,#455,.T.);
#457=ORIENTED_EDGE('',*,*,#405,.T.);
#458=ORIENTED_EDGE('',*,*,#403,.F.);
#459=ORIENTED_EDGE('',*,*,#441,.T.);
#461=ORIENTED_EDGE('',*,*,#460,.T.);
#462=EDGE_LOOP('',(#456,#457,#458,#459,#461));
#463=FACE_OUTER_BOUND('',#462,.F.);
#464=ADVANCED_FACE('',(#463),#454,.T.);
#465=CARTESIAN_POINT('',(0.E0,2.886751345948E-1,0.E0));
#466=DIRECTION('',(5.E-1,8.660254037844E-1,0.E0));
#467=DIRECTION('',(8.660254037844E-1,-5.E-1,0.E0));
#468=AXIS2_PLACEMENT_3D('',#465,#466,#467);
#469=PLANE('',#468);
#470=ORIENTED_EDGE('',*,*,#455,.F.);
#472=ORIENTED_EDGE('',*,*,#471,.F.);
#473=ORIENTED_EDGE('',*,*,#359,.F.);
#474=ORIENTED_EDGE('',*,*,#385,.T.);
#475=EDGE_LOOP('',(#470,#472,#473,#474));
#476=FACE_OUTER_BOUND('',#475,.F.);
#477=ADVANCED_FACE('',(#476),#469,.T.);
#478=CARTESIAN_POINT('',(2.5E-1,1.443375672974E-1,0.E0));
#479=DIRECTION('',(1.E0,0.E0,0.E0));
#480=DIRECTION('',(0.E0,-1.E0,0.E0));
#481=AXIS2_PLACEMENT_3D('',#478,#479,#480);
#482=PLANE('',#481);
#483=ORIENTED_EDGE('',*,*,#460,.F.);
#484=ORIENTED_EDGE('',*,*,#445,.F.);
#485=ORIENTED_EDGE('',*,*,#361,.F.);
#486=ORIENTED_EDGE('',*,*,#471,.T.);
#487=EDGE_LOOP('',(#483,#484,#485,#486));
#488=FACE_OUTER_BOUND('',#487,.F.);
#489=ADVANCED_FACE('',(#488),#482,.T.);
#490=CARTESIAN_POINT('',(0.E0,0.E0,1.5E-2));
#491=DIRECTION('',(0.E0,0.E0,-1.E0));
#492=DIRECTION('',(0.E0,-1.E0,0.E0));
#493=AXIS2_PLACEMENT_3D('',#490,#491,#492);
#494=TOROIDAL_SURFACE('',#493,1.09E-1,1.5E-2);
#495=ORIENTED_EDGE('',*,*,#371,.T.);
#497=ORIENTED_EDGE('',*,*,#496,.T.);
#499=ORIENTED_EDGE('',*,*,#498,.F.);
#501=ORIENTED_EDGE('',*,*,#500,.F.);
#502=EDGE_LOOP('',(#495,#497,#499,#501));
#503=FACE_OUTER_BOUND('',#502,.F.);
#504=ADVANCED_FACE('',(#503),#494,.F.);
#505=CARTESIAN_POINT('',(0.E0,0.E0,1.5E-2));
#506=DIRECTION('',(0.E0,0.E0,-1.E0));
#507=DIRECTION('',(0.E0,-1.E0,0.E0));
#508=AXIS2_PLACEMENT_3D('',#505,#506,#507);
#509=TOROIDAL_SURFACE('',#508,1.09E-1,1.5E-2);
#510=ORIENTED_EDGE('',*,*,#373,.T.);
#511=ORIENTED_EDGE('',*,*,#500,.T.);
#513=ORIENTED_EDGE('',*,*,#512,.T.);
#514=ORIENTED_EDGE('',*,*,#496,.F.);
#515=EDGE_LOOP('',(#510,#511,#513,#514));
#516=FACE_OUTER_BOUND('',#515,.F.);
#517=ADVANCED_FACE('',(#516),#509,.F.);
#518=CARTESIAN_POINT('',(0.E0,0.E0,2.625E-1));
#519=DIRECTION('',(0.E0,0.E0,-1.E0));
#520=DIRECTION('',(0.E0,-1.E0,0.E0));
#521=AXIS2_PLACEMENT_3D('',#518,#519,#520);
#522=CYLINDRICAL_SURFACE('',#521,9.4E-2);
#524=ORIENTED_EDGE('',*,*,#523,.T.);
#526=ORIENTED_EDGE('',*,*,#525,.T.);
#528=ORIENTED_EDGE('',*,*,#527,.F.);
#529=ORIENTED_EDGE('',*,*,#512,.F.);
#530=EDGE_LOOP('',(#524,#526,#528,#529));
#531=FACE_OUTER_BOUND('',#530,.F.);
#532=ADVANCED_FACE('',(#531),#522,.T.);
#533=CARTESIAN_POINT('',(0.E0,0.E0,2.625E-1));
#534=DIRECTION('',(0.E0,0.E0,-1.E0));
#535=DIRECTION('',(0.E0,-1.E0,0.E0));
#536=AXIS2_PLACEMENT_3D('',#533,#534,#535);
#537=CYLINDRICAL_SURFACE('',#536,9.4E-2);
#538=ORIENTED_EDGE('',*,*,#523,.F.);
#539=ORIENTED_EDGE('',*,*,#498,.T.);
#540=ORIENTED_EDGE('',*,*,#527,.T.);
#542=ORIENTED_EDGE('',*,*,#541,.F.);
#543=EDGE_LOOP('',(#538,#539,#540,#542));
#544=FACE_OUTER_BOUND('',#543,.F.);
#545=ADVANCED_FACE('',(#544),#537,.T.);
#546=CARTESIAN_POINT('',(0.E0,0.E0,9.225E-2));
#547=DIRECTION('',(0.E0,0.E0,1.E0));
#548=DIRECTION('',(0.E0,1.E0,0.E0));
#549=AXIS2_PLACEMENT_3D('',#546,#547,#548);
#550=CONICAL_SURFACE('',#549,1.0825E-1,4.5E1);
#552=ORIENTED_EDGE('',*,*,#551,.F.);
#553=ORIENTED_EDGE('',*,*,#541,.T.);
#555=ORIENTED_EDGE('',*,*,#554,.T.);
#557=ORIENTED_EDGE('',*,*,#556,.F.);
#558=EDGE_LOOP('',(#552,#553,#555,#557));
#559=FACE_OUTER_BOUND('',#558,.F.);
#560=ADVANCED_FACE('',(#559),#550,.T.);
#561=CARTESIAN_POINT('',(0.E0,0.E0,9.225E-2));
#562=DIRECTION('',(0.E0,0.E0,1.E0));
#563=DIRECTION('',(0.E0,1.E0,0.E0));
#564=AXIS2_PLACEMENT_3D('',#561,#562,#563);
#565=CONICAL_SURFACE('',#564,1.0825E-1,4.5E1);
#566=ORIENTED_EDGE('',*,*,#551,.T.);
#568=ORIENTED_EDGE('',*,*,#567,.T.);
#569=ORIENTED_EDGE('',*,*,#554,.F.);
#570=ORIENTED_EDGE('',*,*,#525,.F.);
#571=EDGE_LOOP('',(#566,#568,#569,#570));
#572=FACE_OUTER_BOUND('',#571,.F.);
#573=ADVANCED_FACE('',(#572),#565,.T.);
#574=CARTESIAN_POINT('',(0.E0,0.E0,2.625E-1));
#575=DIRECTION('',(0.E0,0.E0,-1.E0));
#576=DIRECTION('',(0.E0,-1.E0,0.E0));
#577=AXIS2_PLACEMENT_3D('',#574,#575,#576);
#578=CYLINDRICAL_SURFACE('',#577,1.225E-1);
#580=ORIENTED_EDGE('',*,*,#579,.T.);
#582=ORIENTED_EDGE('',*,*,#581,.T.);
#584=ORIENTED_EDGE('',*,*,#583,.F.);
#585=ORIENTED_EDGE('',*,*,#567,.F.);
#586=EDGE_LOOP('',(#580,#582,#584,#585));
#587=FACE_OUTER_BOUND('',#586,.F.);
#588=ADVANCED_FACE('',(#587),#578,.T.);
#589=CARTESIAN_POINT('',(0.E0,0.E0,2.625E-1));
#590=DIRECTION('',(0.E0,0.E0,-1.E0));
#591=DIRECTION('',(0.E0,-1.E0,0.E0));
#592=AXIS2_PLACEMENT_3D('',#589,#590,#591);
#593=CYLINDRICAL_SURFACE('',#592,1.225E-1);
#594=ORIENTED_EDGE('',*,*,#579,.F.);
#595=ORIENTED_EDGE('',*,*,#556,.T.);
#596=ORIENTED_EDGE('',*,*,#583,.T.);
#598=ORIENTED_EDGE('',*,*,#597,.F.);
#599=EDGE_LOOP('',(#594,#595,#596,#598));
#600=FACE_OUTER_BOUND('',#599,.F.);
#601=ADVANCED_FACE('',(#600),#593,.T.);
#602=CARTESIAN_POINT('',(0.E0,0.E0,2.3575E-1));
#603=DIRECTION('',(0.E0,0.E0,-1.E0));
#604=DIRECTION('',(0.E0,-1.E0,0.E0));
#605=AXIS2_PLACEMENT_3D('',#602,#603,#604);
#606=CONICAL_SURFACE('',#605,1.0825E-1,4.5E1);
#608=ORIENTED_EDGE('',*,*,#607,.F.);
#609=ORIENTED_EDGE('',*,*,#597,.T.);
#611=ORIENTED_EDGE('',*,*,#610,.T.);
#613=ORIENTED_EDGE('',*,*,#612,.F.);
#614=EDGE_LOOP('',(#608,#609,#611,#613));
#615=FACE_OUTER_BOUND('',#614,.F.);
#616=ADVANCED_FACE('',(#615),#606,.T.);
#617=CARTESIAN_POINT('',(0.E0,0.E0,2.3575E-1));
#618=DIRECTION('',(0.E0,0.E0,-1.E0));
#619=DIRECTION('',(0.E0,-1.E0,0.E0));
#620=AXIS2_PLACEMENT_3D('',#617,#618,#619);
#621=CONICAL_SURFACE('',#620,1.0825E-1,4.5E1);
#622=ORIENTED_EDGE('',*,*,#607,.T.);
#624=ORIENTED_EDGE('',*,*,#623,.T.);
#625=ORIENTED_EDGE('',*,*,#610,.F.);
#626=ORIENTED_EDGE('',*,*,#581,.F.);
#627=EDGE_LOOP('',(#622,#624,#625,#626));
#628=FACE_OUTER_BOUND('',#627,.F.);
#629=ADVANCED_FACE('',(#628),#621,.T.);
#630=CARTESIAN_POINT('',(0.E0,0.E0,2.5E-1));
#631=DIRECTION('',(0.E0,0.E0,-1.E0));
#632=DIRECTION('',(0.E0,-1.E0,0.E0));
#633=AXIS2_PLACEMENT_3D('',#630,#631,#632);
#634=PLANE('',#633);
#635=ORIENTED_EDGE('',*,*,#623,.F.);
#636=ORIENTED_EDGE('',*,*,#612,.T.);
#637=EDGE_LOOP('',(#635,#636));
#638=FACE_OUTER_BOUND('',#637,.F.);
#639=ADVANCED_FACE('',(#638),#634,.F.);
#640=CLOSED_SHELL('',(#377,#392,#409,#422,#435,#449,#464,#477,#489,#504,#517,
#532,#545,#560,#573,#588,#601,#616,#629,#639));
#641=MANIFOLD_SOLID_BREP('',#640);
#642=DIMENSIONAL_EXPONENTS(1.E0,0.E0,0.E0,0.E0,0.E0,0.E0,0.E0);
#643=(LENGTH_UNIT()NAMED_UNIT(*)SI_UNIT(.MILLI.,.METRE.));
#644=LENGTH_MEASURE_WITH_UNIT(LENGTH_MEASURE(2.54E1),#643);
#645=(CONVERSION_BASED_UNIT('INCH',#644)LENGTH_UNIT()NAMED_UNIT(#642));
#646=DIMENSIONAL_EXPONENTS(0.E0,0.E0,0.E0,0.E0,0.E0,0.E0,0.E0);
#647=(NAMED_UNIT(*)PLANE_ANGLE_UNIT()SI_UNIT($,.RADIAN.));
#648=PLANE_ANGLE_MEASURE_WITH_UNIT(PLANE_ANGLE_MEASURE(1.745329251994E-2),#647);
#649=(CONVERSION_BASED_UNIT('DEGREE',#648)NAMED_UNIT(#646)PLANE_ANGLE_UNIT());
#650=(NAMED_UNIT(*)SI_UNIT($,.STERADIAN.)SOLID_ANGLE_UNIT());
#651=UNCERTAINTY_MEASURE_WITH_UNIT(LENGTH_MEASURE(9.410737552554E-5),#645,
'distance_accuracy_value',
'Maximum model space distance between geometric entities at asserted connectivities');
#652=(GEOMETRIC_REPRESENTATION_CONTEXT(3)GLOBAL_UNCERTAINTY_ASSIGNED_CONTEXT((
#651))GLOBAL_UNIT_ASSIGNED_CONTEXT((#645,#649,#650))REPRESENTATION_CONTEXT
('ID1','3'));
#654=APPLICATION_CONTEXT('automotive_design');
#655=APPLICATION_PROTOCOL_DEFINITION('draft international standard',
'automotive_design',1998,#654);
#656=PRODUCT_DEFINITION_CONTEXT('part definition',#654,'design');
#657=PRODUCT_CONTEXT('',#654,'mechanical');
#658=PRODUCT('ILC64210410','ILC64210410','NOT SPECIFIED',(#657));
#659=PRODUCT_DEFINITION_FORMATION_WITH_SPECIFIED_SOURCE('','LAST_VERSION',#658,
.MADE.);
#663=PRODUCT_TYPE('part','',(#658));
#140=CIRCLE('',#139,1.09E-1);
#145=CIRCLE('',#144,1.09E-1);
#154=CIRCLE('',#153,5.673623181002E-1);
#159=CIRCLE('',#158,5.673623181002E-1);
#164=CIRCLE('',#163,5.673623181002E-1);
#181=CIRCLE('',#180,5.673623181002E-1);
#186=CIRCLE('',#185,6.2E-1);
#191=CIRCLE('',#190,6.2E-1);
#196=CIRCLE('',#195,5.673623181002E-1);
#201=CIRCLE('',#200,5.673623181002E-1);
#214=CIRCLE('',#213,1.5E-2);
#219=CIRCLE('',#218,1.5E-2);
#232=CIRCLE('',#231,9.4E-2);
#237=CIRCLE('',#236,9.4E-2);
#242=CIRCLE('',#241,9.4E-2);
#255=CIRCLE('',#254,9.4E-2);
#268=CIRCLE('',#267,1.225E-1);
#273=CIRCLE('',#272,1.225E-1);
#278=CIRCLE('',#277,1.225E-1);
#291=CIRCLE('',#290,1.225E-1);
#296=CIRCLE('',#295,9.4E-2);
#301=CIRCLE('',#300,9.4E-2);
#357=EDGE_CURVE('',#304,#305,#115,.T.);
#359=EDGE_CURVE('',#305,#307,#119,.T.);
#361=EDGE_CURVE('',#307,#309,#123,.T.);
#363=EDGE_CURVE('',#309,#311,#127,.T.);
#365=EDGE_CURVE('',#311,#313,#131,.T.);
#367=EDGE_CURVE('',#313,#304,#135,.T.);
#371=EDGE_CURVE('',#336,#337,#140,.T.);
#373=EDGE_CURVE('',#337,#336,#145,.T.);
#383=EDGE_CURVE('',#340,#341,#154,.T.);
#385=EDGE_CURVE('',#305,#340,#205,.T.);
#388=EDGE_CURVE('',#304,#341,#149,.T.);
#399=EDGE_CURVE('',#341,#349,#159,.T.);
#401=EDGE_CURVE('',#349,#347,#164,.T.);
#403=EDGE_CURVE('',#347,#351,#191,.T.);
#405=EDGE_CURVE('',#340,#351,#186,.T.);
#418=EDGE_CURVE('',#313,#349,#168,.T.);
#431=EDGE_CURVE('',#311,#347,#172,.T.);
#441=EDGE_CURVE('',#347,#345,#196,.T.);
#445=EDGE_CURVE('',#309,#345,#176,.T.);
#455=EDGE_CURVE('',#343,#340,#181,.T.);
#460=EDGE_CURVE('',#345,#343,#201,.T.);
#471=EDGE_CURVE('',#307,#343,#209,.T.);
#496=EDGE_CURVE('',#337,#326,#219,.T.);
#498=EDGE_CURVE('',#316,#326,#237,.T.);
#500=EDGE_CURVE('',#336,#316,#214,.T.);
#512=EDGE_CURVE('',#316,#326,#232,.T.);
#523=EDGE_CURVE('',#316,#317,#223,.T.);
#525=EDGE_CURVE('',#317,#327,#255,.T.);
#527=EDGE_CURVE('',#326,#327,#227,.T.);
#541=EDGE_CURVE('',#317,#327,#242,.T.);
#551=EDGE_CURVE('',#317,#319,#246,.T.);
#554=EDGE_CURVE('',#327,#329,#250,.T.);
#556=EDGE_CURVE('',#319,#329,#273,.T.);
#567=EDGE_CURVE('',#319,#329,#268,.T.);
#579=EDGE_CURVE('',#319,#321,#259,.T.);
#581=EDGE_CURVE('',#321,#331,#291,.T.);
#583=EDGE_CURVE('',#329,#331,#263,.T.);
#597=EDGE_CURVE('',#321,#331,#278,.T.);
#607=EDGE_CURVE('',#321,#323,#282,.T.);
#610=EDGE_CURVE('',#331,#333,#286,.T.);
#612=EDGE_CURVE('',#323,#333,#301,.T.);
#623=EDGE_CURVE('',#323,#333,#296,.T.);
#653=ADVANCED_BREP_SHAPE_REPRESENTATION('',(#641),#652);
#660=PRODUCT_DEFINITION('part definition','',#659,#656);
#661=PRODUCT_DEFINITION_SHAPE('','SHAPE FOR ILC64210410.',#660);
#662=SHAPE_DEFINITION_REPRESENTATION(#661,#653);
ENDSEC;
END-ISO-10303-21;
