ISO-10303-21;
HEADER;
FILE_DESCRIPTION((''),'2;1');
FILE_NAME('ILC64210420','2016-05-25T',('twa'),(''),
'PRO/ENGINEER BY PARAMETRIC TECHNOLOGY CORPORATION, 2013320',
'PRO/ENGINEER BY PARAMETRIC TECHNOLOGY CORPORATION, 2013320','');
FILE_SCHEMA(('CONFIG_CONTROL_DESIGN'));
ENDSEC;
DATA;
#1=DIRECTION('',(8.660254037844E-1,5.E-1,0.E0));
#2=VECTOR('',#1,2.886751345948E-1);
#3=CARTESIAN_POINT('',(-2.5E-1,1.443375672974E-1,0.E0));
#4=LINE('',#3,#2);
#5=DIRECTION('',(8.660254037844E-1,-5.E-1,0.E0));
#6=VECTOR('',#5,2.886751345948E-1);
#7=CARTESIAN_POINT('',(0.E0,2.886751345948E-1,0.E0));
#8=LINE('',#7,#6);
#9=DIRECTION('',(0.E0,-1.E0,0.E0));
#10=VECTOR('',#9,2.886751345948E-1);
#11=CARTESIAN_POINT('',(2.5E-1,1.443375672974E-1,0.E0));
#12=LINE('',#11,#10);
#13=DIRECTION('',(-8.660254037844E-1,-5.E-1,0.E0));
#14=VECTOR('',#13,2.886751345948E-1);
#15=CARTESIAN_POINT('',(2.5E-1,-1.443375672974E-1,0.E0));
#16=LINE('',#15,#14);
#17=DIRECTION('',(-8.660254037844E-1,5.E-1,0.E0));
#18=VECTOR('',#17,2.886751345948E-1);
#19=CARTESIAN_POINT('',(0.E0,-2.886751345948E-1,0.E0));
#20=LINE('',#19,#18);
#21=DIRECTION('',(0.E0,1.E0,0.E0));
#22=VECTOR('',#21,2.886751345948E-1);
#23=CARTESIAN_POINT('',(-2.5E-1,-1.443375672974E-1,0.E0));
#24=LINE('',#23,#22);
#25=CARTESIAN_POINT('',(0.E0,0.E0,0.E0));
#26=DIRECTION('',(0.E0,0.E0,-1.E0));
#27=DIRECTION('',(0.E0,1.E0,0.E0));
#28=AXIS2_PLACEMENT_3D('',#25,#26,#27);
#30=CARTESIAN_POINT('',(0.E0,0.E0,0.E0));
#31=DIRECTION('',(0.E0,0.E0,-1.E0));
#32=DIRECTION('',(0.E0,-1.E0,0.E0));
#33=AXIS2_PLACEMENT_3D('',#30,#31,#32);
#35=DIRECTION('',(0.E0,0.E0,-1.E0));
#36=VECTOR('',#35,1.466954224947E-1);
#37=CARTESIAN_POINT('',(-2.5E-1,1.443375672974E-1,0.E0));
#38=LINE('',#37,#36);
#39=CARTESIAN_POINT('',(-1.25E-1,2.165063509461E-1,4.02E-1));
#40=DIRECTION('',(-5.E-1,8.660254037844E-1,0.E0));
#41=DIRECTION('',(2.203177687559E-1,1.272005230985E-1,-9.670988096849E-1));
#42=AXIS2_PLACEMENT_3D('',#39,#40,#41);
#44=CARTESIAN_POINT('',(-2.5E-1,0.E0,4.02E-1));
#45=DIRECTION('',(-1.E0,0.E0,0.E0));
#46=DIRECTION('',(0.E0,2.544010461969E-1,-9.670988096849E-1));
#47=AXIS2_PLACEMENT_3D('',#44,#45,#46);
#49=CARTESIAN_POINT('',(-1.25E-1,-2.165063509461E-1,4.02E-1));
#50=DIRECTION('',(-5.E-1,-8.660254037844E-1,0.E0));
#51=DIRECTION('',(-2.203177687559E-1,1.272005230985E-1,-9.670988096849E-1));
#52=AXIS2_PLACEMENT_3D('',#49,#50,#51);
#54=DIRECTION('',(0.E0,0.E0,-1.E0));
#55=VECTOR('',#54,1.466954224947E-1);
#56=CARTESIAN_POINT('',(-2.5E-1,-1.443375672974E-1,0.E0));
#57=LINE('',#56,#55);
#58=DIRECTION('',(0.E0,0.E0,-1.E0));
#59=VECTOR('',#58,1.466954224947E-1);
#60=CARTESIAN_POINT('',(0.E0,-2.886751345948E-1,0.E0));
#61=LINE('',#60,#59);
#62=DIRECTION('',(0.E0,0.E0,-1.E0));
#63=VECTOR('',#62,1.466954224947E-1);
#64=CARTESIAN_POINT('',(2.5E-1,-1.443375672974E-1,0.E0));
#65=LINE('',#64,#63);
#66=CARTESIAN_POINT('',(1.25E-1,2.165063509461E-1,4.02E-1));
#67=DIRECTION('',(5.E-1,8.660254037844E-1,0.E0));
#68=DIRECTION('',(2.203177687559E-1,-1.272005230985E-1,-9.670988096849E-1));
#69=AXIS2_PLACEMENT_3D('',#66,#67,#68);
#71=CARTESIAN_POINT('',(0.E0,0.E0,4.02E-1));
#72=DIRECTION('',(-1.E0,0.E0,0.E0));
#73=DIRECTION('',(0.E0,4.656050557981E-1,-8.849926169270E-1));
#74=AXIS2_PLACEMENT_3D('',#71,#72,#73);
#76=CARTESIAN_POINT('',(0.E0,0.E0,4.02E-1));
#77=DIRECTION('',(1.E0,0.E0,0.E0));
#78=DIRECTION('',(0.E0,-4.656050557981E-1,-8.849926169270E-1));
#79=AXIS2_PLACEMENT_3D('',#76,#77,#78);
#81=CARTESIAN_POINT('',(1.25E-1,-2.165063509461E-1,4.02E-1));
#82=DIRECTION('',(5.E-1,-8.660254037844E-1,0.E0));
#83=DIRECTION('',(-2.203177687559E-1,-1.272005230985E-1,-9.670988096849E-1));
#84=AXIS2_PLACEMENT_3D('',#81,#82,#83);
#86=CARTESIAN_POINT('',(2.5E-1,0.E0,4.02E-1));
#87=DIRECTION('',(1.E0,0.E0,0.E0));
#88=DIRECTION('',(0.E0,-2.544010461969E-1,-9.670988096849E-1));
#89=AXIS2_PLACEMENT_3D('',#86,#87,#88);
#91=DIRECTION('',(0.E0,0.E0,-1.E0));
#92=VECTOR('',#91,1.466954224947E-1);
#93=CARTESIAN_POINT('',(0.E0,2.886751345948E-1,0.E0));
#94=LINE('',#93,#92);
#95=DIRECTION('',(0.E0,0.E0,-1.E0));
#96=VECTOR('',#95,1.466954224947E-1);
#97=CARTESIAN_POINT('',(2.5E-1,1.443375672974E-1,0.E0));
#98=LINE('',#97,#96);
#99=CARTESIAN_POINT('',(0.E0,1.09E-1,1.5E-2));
#100=DIRECTION('',(-1.E0,0.E0,0.E0));
#101=DIRECTION('',(0.E0,0.E0,-1.E0));
#102=AXIS2_PLACEMENT_3D('',#99,#100,#101);
#104=CARTESIAN_POINT('',(0.E0,-1.09E-1,1.5E-2));
#105=DIRECTION('',(1.E0,0.E0,0.E0));
#106=DIRECTION('',(0.E0,0.E0,-1.E0));
#107=AXIS2_PLACEMENT_3D('',#104,#105,#106);
#109=DIRECTION('',(0.E0,0.E0,1.E0));
#110=VECTOR('',#109,6.3E-2);
#111=CARTESIAN_POINT('',(0.E0,9.4E-2,1.5E-2));
#112=LINE('',#111,#110);
#113=DIRECTION('',(0.E0,0.E0,1.E0));
#114=VECTOR('',#113,6.3E-2);
#115=CARTESIAN_POINT('',(0.E0,-9.4E-2,1.5E-2));
#116=LINE('',#115,#114);
#117=CARTESIAN_POINT('',(0.E0,0.E0,1.5E-2));
#118=DIRECTION('',(0.E0,0.E0,1.E0));
#119=DIRECTION('',(0.E0,1.E0,0.E0));
#120=AXIS2_PLACEMENT_3D('',#117,#118,#119);
#122=CARTESIAN_POINT('',(0.E0,0.E0,1.5E-2));
#123=DIRECTION('',(0.E0,0.E0,-1.E0));
#124=DIRECTION('',(0.E0,1.E0,0.E0));
#125=AXIS2_PLACEMENT_3D('',#122,#123,#124);
#127=CARTESIAN_POINT('',(0.E0,0.E0,7.8E-2));
#128=DIRECTION('',(0.E0,0.E0,-1.E0));
#129=DIRECTION('',(0.E0,1.E0,0.E0));
#130=AXIS2_PLACEMENT_3D('',#127,#128,#129);
#132=DIRECTION('',(0.E0,7.071067811865E-1,7.071067811865E-1));
#133=VECTOR('',#132,4.101219330882E-2);
#134=CARTESIAN_POINT('',(0.E0,9.4E-2,7.8E-2));
#135=LINE('',#134,#133);
#136=DIRECTION('',(0.E0,-7.071067811865E-1,7.071067811865E-1));
#137=VECTOR('',#136,4.101219330882E-2);
#138=CARTESIAN_POINT('',(0.E0,-9.4E-2,7.8E-2));
#139=LINE('',#138,#137);
#140=CARTESIAN_POINT('',(0.E0,0.E0,7.8E-2));
#141=DIRECTION('',(0.E0,0.E0,1.E0));
#142=DIRECTION('',(0.E0,1.E0,0.E0));
#143=AXIS2_PLACEMENT_3D('',#140,#141,#142);
#145=DIRECTION('',(0.E0,0.E0,1.E0));
#146=VECTOR('',#145,1.14E-1);
#147=CARTESIAN_POINT('',(0.E0,1.23E-1,1.07E-1));
#148=LINE('',#147,#146);
#149=DIRECTION('',(0.E0,0.E0,1.E0));
#150=VECTOR('',#149,1.14E-1);
#151=CARTESIAN_POINT('',(0.E0,-1.23E-1,1.07E-1));
#152=LINE('',#151,#150);
#153=CARTESIAN_POINT('',(0.E0,0.E0,1.07E-1));
#154=DIRECTION('',(0.E0,0.E0,1.E0));
#155=DIRECTION('',(0.E0,1.E0,0.E0));
#156=AXIS2_PLACEMENT_3D('',#153,#154,#155);
#158=CARTESIAN_POINT('',(0.E0,0.E0,1.07E-1));
#159=DIRECTION('',(0.E0,0.E0,-1.E0));
#160=DIRECTION('',(0.E0,1.E0,0.E0));
#161=AXIS2_PLACEMENT_3D('',#158,#159,#160);
#163=CARTESIAN_POINT('',(0.E0,0.E0,2.21E-1));
#164=DIRECTION('',(0.E0,0.E0,-1.E0));
#165=DIRECTION('',(0.E0,1.E0,0.E0));
#166=AXIS2_PLACEMENT_3D('',#163,#164,#165);
#168=DIRECTION('',(0.E0,-7.071067811865E-1,7.071067811865E-1));
#169=VECTOR('',#168,4.101219330882E-2);
#170=CARTESIAN_POINT('',(0.E0,1.23E-1,2.21E-1));
#171=LINE('',#170,#169);
#172=DIRECTION('',(0.E0,7.071067811865E-1,7.071067811865E-1));
#173=VECTOR('',#172,4.101219330882E-2);
#174=CARTESIAN_POINT('',(0.E0,-1.23E-1,2.21E-1));
#175=LINE('',#174,#173);
#176=CARTESIAN_POINT('',(0.E0,0.E0,2.21E-1));
#177=DIRECTION('',(0.E0,0.E0,1.E0));
#178=DIRECTION('',(0.E0,1.E0,0.E0));
#179=AXIS2_PLACEMENT_3D('',#176,#177,#178);
#181=CARTESIAN_POINT('',(0.E0,0.E0,2.5E-1));
#182=DIRECTION('',(0.E0,0.E0,1.E0));
#183=DIRECTION('',(0.E0,1.E0,0.E0));
#184=AXIS2_PLACEMENT_3D('',#181,#182,#183);
#186=CARTESIAN_POINT('',(0.E0,0.E0,2.5E-1));
#187=DIRECTION('',(0.E0,0.E0,-1.E0));
#188=DIRECTION('',(0.E0,1.E0,0.E0));
#189=AXIS2_PLACEMENT_3D('',#186,#187,#188);
#191=CARTESIAN_POINT('',(-2.5E-1,1.443375672974E-1,0.E0));
#192=CARTESIAN_POINT('',(0.E0,2.886751345948E-1,0.E0));
#193=VERTEX_POINT('',#191);
#194=VERTEX_POINT('',#192);
#195=CARTESIAN_POINT('',(2.5E-1,1.443375672974E-1,0.E0));
#196=VERTEX_POINT('',#195);
#197=CARTESIAN_POINT('',(2.5E-1,-1.443375672974E-1,0.E0));
#198=VERTEX_POINT('',#197);
#199=CARTESIAN_POINT('',(0.E0,-2.886751345948E-1,0.E0));
#200=VERTEX_POINT('',#199);
#201=CARTESIAN_POINT('',(-2.5E-1,-1.443375672974E-1,0.E0));
#202=VERTEX_POINT('',#201);
#203=CARTESIAN_POINT('',(0.E0,9.4E-2,1.5E-2));
#204=CARTESIAN_POINT('',(0.E0,9.4E-2,7.8E-2));
#205=VERTEX_POINT('',#203);
#206=VERTEX_POINT('',#204);
#207=CARTESIAN_POINT('',(0.E0,1.23E-1,1.07E-1));
#208=VERTEX_POINT('',#207);
#209=CARTESIAN_POINT('',(0.E0,1.23E-1,2.21E-1));
#210=VERTEX_POINT('',#209);
#211=CARTESIAN_POINT('',(0.E0,9.4E-2,2.5E-1));
#212=VERTEX_POINT('',#211);
#213=CARTESIAN_POINT('',(0.E0,-9.4E-2,1.5E-2));
#214=CARTESIAN_POINT('',(0.E0,-9.4E-2,7.8E-2));
#215=VERTEX_POINT('',#213);
#216=VERTEX_POINT('',#214);
#217=CARTESIAN_POINT('',(0.E0,-1.23E-1,1.07E-1));
#218=VERTEX_POINT('',#217);
#219=CARTESIAN_POINT('',(0.E0,-1.23E-1,2.21E-1));
#220=VERTEX_POINT('',#219);
#221=CARTESIAN_POINT('',(0.E0,-9.4E-2,2.5E-1));
#222=VERTEX_POINT('',#221);
#223=CARTESIAN_POINT('',(0.E0,1.09E-1,0.E0));
#224=CARTESIAN_POINT('',(0.E0,-1.09E-1,0.E0));
#225=VERTEX_POINT('',#223);
#226=VERTEX_POINT('',#224);
#227=CARTESIAN_POINT('',(0.E0,2.886751345948E-1,-1.466954224947E-1));
#228=CARTESIAN_POINT('',(-2.5E-1,1.443375672974E-1,-1.466954224947E-1));
#229=VERTEX_POINT('',#227);
#230=VERTEX_POINT('',#228);
#231=CARTESIAN_POINT('',(2.5E-1,1.443375672974E-1,-1.466954224947E-1));
#232=VERTEX_POINT('',#231);
#233=CARTESIAN_POINT('',(2.5E-1,-1.443375672974E-1,-1.466954224947E-1));
#234=VERTEX_POINT('',#233);
#235=CARTESIAN_POINT('',(0.E0,-2.886751345948E-1,-1.466954224947E-1));
#236=VERTEX_POINT('',#235);
#237=CARTESIAN_POINT('',(-2.5E-1,-1.443375672974E-1,-1.466954224947E-1));
#238=VERTEX_POINT('',#237);
#239=CARTESIAN_POINT('',(0.E0,0.E0,-2.18E-1));
#240=VERTEX_POINT('',#239);
#241=CARTESIAN_POINT('',(0.E0,0.E0,0.E0));
#242=DIRECTION('',(0.E0,0.E0,-1.E0));
#243=DIRECTION('',(0.E0,-1.E0,0.E0));
#244=AXIS2_PLACEMENT_3D('',#241,#242,#243);
#245=PLANE('',#244);
#247=ORIENTED_EDGE('',*,*,#246,.T.);
#249=ORIENTED_EDGE('',*,*,#248,.T.);
#251=ORIENTED_EDGE('',*,*,#250,.T.);
#253=ORIENTED_EDGE('',*,*,#252,.T.);
#255=ORIENTED_EDGE('',*,*,#254,.T.);
#257=ORIENTED_EDGE('',*,*,#256,.T.);
#258=EDGE_LOOP('',(#247,#249,#251,#253,#255,#257));
#259=FACE_OUTER_BOUND('',#258,.F.);
#261=ORIENTED_EDGE('',*,*,#260,.F.);
#263=ORIENTED_EDGE('',*,*,#262,.F.);
#264=EDGE_LOOP('',(#261,#263));
#265=FACE_BOUND('',#264,.F.);
#266=ADVANCED_FACE('',(#259,#265),#245,.F.);
#267=CARTESIAN_POINT('',(-2.5E-1,1.443375672974E-1,0.E0));
#268=DIRECTION('',(-5.E-1,8.660254037844E-1,0.E0));
#269=DIRECTION('',(8.660254037844E-1,5.E-1,0.E0));
#270=AXIS2_PLACEMENT_3D('',#267,#268,#269);
#271=PLANE('',#270);
#273=ORIENTED_EDGE('',*,*,#272,.F.);
#275=ORIENTED_EDGE('',*,*,#274,.F.);
#276=ORIENTED_EDGE('',*,*,#246,.F.);
#278=ORIENTED_EDGE('',*,*,#277,.T.);
#279=EDGE_LOOP('',(#273,#275,#276,#278));
#280=FACE_OUTER_BOUND('',#279,.F.);
#281=ADVANCED_FACE('',(#280),#271,.T.);
#282=CARTESIAN_POINT('',(0.E0,0.E0,4.02E-1));
#283=DIRECTION('',(0.E0,0.E0,1.E0));
#284=DIRECTION('',(0.E0,1.E0,0.E0));
#285=AXIS2_PLACEMENT_3D('',#282,#283,#284);
#286=SPHERICAL_SURFACE('',#285,6.2E-1);
#287=ORIENTED_EDGE('',*,*,#272,.T.);
#289=ORIENTED_EDGE('',*,*,#288,.T.);
#291=ORIENTED_EDGE('',*,*,#290,.T.);
#293=ORIENTED_EDGE('',*,*,#292,.T.);
#295=ORIENTED_EDGE('',*,*,#294,.F.);
#296=EDGE_LOOP('',(#287,#289,#291,#293,#295));
#297=FACE_OUTER_BOUND('',#296,.F.);
#298=ADVANCED_FACE('',(#297),#286,.T.);
#299=CARTESIAN_POINT('',(-2.5E-1,-1.443375672974E-1,0.E0));
#300=DIRECTION('',(-1.E0,0.E0,0.E0));
#301=DIRECTION('',(0.E0,1.E0,0.E0));
#302=AXIS2_PLACEMENT_3D('',#299,#300,#301);
#303=PLANE('',#302);
#304=ORIENTED_EDGE('',*,*,#288,.F.);
#305=ORIENTED_EDGE('',*,*,#277,.F.);
#306=ORIENTED_EDGE('',*,*,#256,.F.);
#308=ORIENTED_EDGE('',*,*,#307,.T.);
#309=EDGE_LOOP('',(#304,#305,#306,#308));
#310=FACE_OUTER_BOUND('',#309,.F.);
#311=ADVANCED_FACE('',(#310),#303,.T.);
#312=CARTESIAN_POINT('',(0.E0,-2.886751345948E-1,0.E0));
#313=DIRECTION('',(-5.E-1,-8.660254037844E-1,0.E0));
#314=DIRECTION('',(-8.660254037844E-1,5.E-1,0.E0));
#315=AXIS2_PLACEMENT_3D('',#312,#313,#314);
#316=PLANE('',#315);
#317=ORIENTED_EDGE('',*,*,#290,.F.);
#318=ORIENTED_EDGE('',*,*,#307,.F.);
#319=ORIENTED_EDGE('',*,*,#254,.F.);
#321=ORIENTED_EDGE('',*,*,#320,.T.);
#322=EDGE_LOOP('',(#317,#318,#319,#321));
#323=FACE_OUTER_BOUND('',#322,.F.);
#324=ADVANCED_FACE('',(#323),#316,.T.);
#325=CARTESIAN_POINT('',(2.5E-1,-1.443375672974E-1,0.E0));
#326=DIRECTION('',(5.E-1,-8.660254037844E-1,0.E0));
#327=DIRECTION('',(-8.660254037844E-1,-5.E-1,0.E0));
#328=AXIS2_PLACEMENT_3D('',#325,#326,#327);
#329=PLANE('',#328);
#331=ORIENTED_EDGE('',*,*,#330,.F.);
#332=ORIENTED_EDGE('',*,*,#320,.F.);
#333=ORIENTED_EDGE('',*,*,#252,.F.);
#335=ORIENTED_EDGE('',*,*,#334,.T.);
#336=EDGE_LOOP('',(#331,#332,#333,#335));
#337=FACE_OUTER_BOUND('',#336,.F.);
#338=ADVANCED_FACE('',(#337),#329,.T.);
#339=CARTESIAN_POINT('',(0.E0,0.E0,4.02E-1));
#340=DIRECTION('',(0.E0,0.E0,1.E0));
#341=DIRECTION('',(0.E0,1.E0,0.E0));
#342=AXIS2_PLACEMENT_3D('',#339,#340,#341);
#343=SPHERICAL_SURFACE('',#342,6.2E-1);
#345=ORIENTED_EDGE('',*,*,#344,.T.);
#346=ORIENTED_EDGE('',*,*,#294,.T.);
#347=ORIENTED_EDGE('',*,*,#292,.F.);
#348=ORIENTED_EDGE('',*,*,#330,.T.);
#350=ORIENTED_EDGE('',*,*,#349,.T.);
#351=EDGE_LOOP('',(#345,#346,#347,#348,#350));
#352=FACE_OUTER_BOUND('',#351,.F.);
#353=ADVANCED_FACE('',(#352),#343,.T.);
#354=CARTESIAN_POINT('',(0.E0,2.886751345948E-1,0.E0));
#355=DIRECTION('',(5.E-1,8.660254037844E-1,0.E0));
#356=DIRECTION('',(8.660254037844E-1,-5.E-1,0.E0));
#357=AXIS2_PLACEMENT_3D('',#354,#355,#356);
#358=PLANE('',#357);
#359=ORIENTED_EDGE('',*,*,#344,.F.);
#361=ORIENTED_EDGE('',*,*,#360,.F.);
#362=ORIENTED_EDGE('',*,*,#248,.F.);
#363=ORIENTED_EDGE('',*,*,#274,.T.);
#364=EDGE_LOOP('',(#359,#361,#362,#363));
#365=FACE_OUTER_BOUND('',#364,.F.);
#366=ADVANCED_FACE('',(#365),#358,.T.);
#367=CARTESIAN_POINT('',(2.5E-1,1.443375672974E-1,0.E0));
#368=DIRECTION('',(1.E0,0.E0,0.E0));
#369=DIRECTION('',(0.E0,-1.E0,0.E0));
#370=AXIS2_PLACEMENT_3D('',#367,#368,#369);
#371=PLANE('',#370);
#372=ORIENTED_EDGE('',*,*,#349,.F.);
#373=ORIENTED_EDGE('',*,*,#334,.F.);
#374=ORIENTED_EDGE('',*,*,#250,.F.);
#375=ORIENTED_EDGE('',*,*,#360,.T.);
#376=EDGE_LOOP('',(#372,#373,#374,#375));
#377=FACE_OUTER_BOUND('',#376,.F.);
#378=ADVANCED_FACE('',(#377),#371,.T.);
#379=CARTESIAN_POINT('',(0.E0,0.E0,1.5E-2));
#380=DIRECTION('',(0.E0,0.E0,-1.E0));
#381=DIRECTION('',(0.E0,-1.E0,0.E0));
#382=AXIS2_PLACEMENT_3D('',#379,#380,#381);
#383=TOROIDAL_SURFACE('',#382,1.09E-1,1.5E-2);
#384=ORIENTED_EDGE('',*,*,#260,.T.);
#386=ORIENTED_EDGE('',*,*,#385,.T.);
#388=ORIENTED_EDGE('',*,*,#387,.F.);
#390=ORIENTED_EDGE('',*,*,#389,.F.);
#391=EDGE_LOOP('',(#384,#386,#388,#390));
#392=FACE_OUTER_BOUND('',#391,.F.);
#393=ADVANCED_FACE('',(#392),#383,.F.);
#394=CARTESIAN_POINT('',(0.E0,0.E0,1.5E-2));
#395=DIRECTION('',(0.E0,0.E0,-1.E0));
#396=DIRECTION('',(0.E0,-1.E0,0.E0));
#397=AXIS2_PLACEMENT_3D('',#394,#395,#396);
#398=TOROIDAL_SURFACE('',#397,1.09E-1,1.5E-2);
#399=ORIENTED_EDGE('',*,*,#262,.T.);
#400=ORIENTED_EDGE('',*,*,#389,.T.);
#402=ORIENTED_EDGE('',*,*,#401,.T.);
#403=ORIENTED_EDGE('',*,*,#385,.F.);
#404=EDGE_LOOP('',(#399,#400,#402,#403));
#405=FACE_OUTER_BOUND('',#404,.F.);
#406=ADVANCED_FACE('',(#405),#398,.F.);
#407=CARTESIAN_POINT('',(0.E0,0.E0,2.625E-1));
#408=DIRECTION('',(0.E0,0.E0,-1.E0));
#409=DIRECTION('',(0.E0,-1.E0,0.E0));
#410=AXIS2_PLACEMENT_3D('',#407,#408,#409);
#411=CYLINDRICAL_SURFACE('',#410,9.4E-2);
#413=ORIENTED_EDGE('',*,*,#412,.T.);
#415=ORIENTED_EDGE('',*,*,#414,.T.);
#417=ORIENTED_EDGE('',*,*,#416,.F.);
#418=ORIENTED_EDGE('',*,*,#401,.F.);
#419=EDGE_LOOP('',(#413,#415,#417,#418));
#420=FACE_OUTER_BOUND('',#419,.F.);
#421=ADVANCED_FACE('',(#420),#411,.T.);
#422=CARTESIAN_POINT('',(0.E0,0.E0,2.625E-1));
#423=DIRECTION('',(0.E0,0.E0,-1.E0));
#424=DIRECTION('',(0.E0,-1.E0,0.E0));
#425=AXIS2_PLACEMENT_3D('',#422,#423,#424);
#426=CYLINDRICAL_SURFACE('',#425,9.4E-2);
#427=ORIENTED_EDGE('',*,*,#412,.F.);
#428=ORIENTED_EDGE('',*,*,#387,.T.);
#429=ORIENTED_EDGE('',*,*,#416,.T.);
#431=ORIENTED_EDGE('',*,*,#430,.F.);
#432=EDGE_LOOP('',(#427,#428,#429,#431));
#433=FACE_OUTER_BOUND('',#432,.F.);
#434=ADVANCED_FACE('',(#433),#426,.T.);
#435=CARTESIAN_POINT('',(0.E0,0.E0,9.25E-2));
#436=DIRECTION('',(0.E0,0.E0,1.E0));
#437=DIRECTION('',(0.E0,1.E0,0.E0));
#438=AXIS2_PLACEMENT_3D('',#435,#436,#437);
#439=CONICAL_SURFACE('',#438,1.085E-1,4.5E1);
#441=ORIENTED_EDGE('',*,*,#440,.F.);
#442=ORIENTED_EDGE('',*,*,#430,.T.);
#444=ORIENTED_EDGE('',*,*,#443,.T.);
#446=ORIENTED_EDGE('',*,*,#445,.F.);
#447=EDGE_LOOP('',(#441,#442,#444,#446));
#448=FACE_OUTER_BOUND('',#447,.F.);
#449=ADVANCED_FACE('',(#448),#439,.T.);
#450=CARTESIAN_POINT('',(0.E0,0.E0,9.25E-2));
#451=DIRECTION('',(0.E0,0.E0,1.E0));
#452=DIRECTION('',(0.E0,1.E0,0.E0));
#453=AXIS2_PLACEMENT_3D('',#450,#451,#452);
#454=CONICAL_SURFACE('',#453,1.085E-1,4.5E1);
#455=ORIENTED_EDGE('',*,*,#440,.T.);
#457=ORIENTED_EDGE('',*,*,#456,.T.);
#458=ORIENTED_EDGE('',*,*,#443,.F.);
#459=ORIENTED_EDGE('',*,*,#414,.F.);
#460=EDGE_LOOP('',(#455,#457,#458,#459));
#461=FACE_OUTER_BOUND('',#460,.F.);
#462=ADVANCED_FACE('',(#461),#454,.T.);
#463=CARTESIAN_POINT('',(0.E0,0.E0,2.625E-1));
#464=DIRECTION('',(0.E0,0.E0,-1.E0));
#465=DIRECTION('',(0.E0,-1.E0,0.E0));
#466=AXIS2_PLACEMENT_3D('',#463,#464,#465);
#467=CYLINDRICAL_SURFACE('',#466,1.23E-1);
#469=ORIENTED_EDGE('',*,*,#468,.T.);
#471=ORIENTED_EDGE('',*,*,#470,.T.);
#473=ORIENTED_EDGE('',*,*,#472,.F.);
#474=ORIENTED_EDGE('',*,*,#456,.F.);
#475=EDGE_LOOP('',(#469,#471,#473,#474));
#476=FACE_OUTER_BOUND('',#475,.F.);
#477=ADVANCED_FACE('',(#476),#467,.T.);
#478=CARTESIAN_POINT('',(0.E0,0.E0,2.625E-1));
#479=DIRECTION('',(0.E0,0.E0,-1.E0));
#480=DIRECTION('',(0.E0,-1.E0,0.E0));
#481=AXIS2_PLACEMENT_3D('',#478,#479,#480);
#482=CYLINDRICAL_SURFACE('',#481,1.23E-1);
#483=ORIENTED_EDGE('',*,*,#468,.F.);
#484=ORIENTED_EDGE('',*,*,#445,.T.);
#485=ORIENTED_EDGE('',*,*,#472,.T.);
#487=ORIENTED_EDGE('',*,*,#486,.F.);
#488=EDGE_LOOP('',(#483,#484,#485,#487));
#489=FACE_OUTER_BOUND('',#488,.F.);
#490=ADVANCED_FACE('',(#489),#482,.T.);
#491=CARTESIAN_POINT('',(0.E0,0.E0,2.355E-1));
#492=DIRECTION('',(0.E0,0.E0,-1.E0));
#493=DIRECTION('',(0.E0,-1.E0,0.E0));
#494=AXIS2_PLACEMENT_3D('',#491,#492,#493);
#495=CONICAL_SURFACE('',#494,1.085E-1,4.5E1);
#497=ORIENTED_EDGE('',*,*,#496,.F.);
#498=ORIENTED_EDGE('',*,*,#486,.T.);
#500=ORIENTED_EDGE('',*,*,#499,.T.);
#502=ORIENTED_EDGE('',*,*,#501,.F.);
#503=EDGE_LOOP('',(#497,#498,#500,#502));
#504=FACE_OUTER_BOUND('',#503,.F.);
#505=ADVANCED_FACE('',(#504),#495,.T.);
#506=CARTESIAN_POINT('',(0.E0,0.E0,2.355E-1));
#507=DIRECTION('',(0.E0,0.E0,-1.E0));
#508=DIRECTION('',(0.E0,-1.E0,0.E0));
#509=AXIS2_PLACEMENT_3D('',#506,#507,#508);
#510=CONICAL_SURFACE('',#509,1.085E-1,4.5E1);
#511=ORIENTED_EDGE('',*,*,#496,.T.);
#513=ORIENTED_EDGE('',*,*,#512,.T.);
#514=ORIENTED_EDGE('',*,*,#499,.F.);
#515=ORIENTED_EDGE('',*,*,#470,.F.);
#516=EDGE_LOOP('',(#511,#513,#514,#515));
#517=FACE_OUTER_BOUND('',#516,.F.);
#518=ADVANCED_FACE('',(#517),#510,.T.);
#519=CARTESIAN_POINT('',(0.E0,0.E0,2.5E-1));
#520=DIRECTION('',(0.E0,0.E0,-1.E0));
#521=DIRECTION('',(0.E0,-1.E0,0.E0));
#522=AXIS2_PLACEMENT_3D('',#519,#520,#521);
#523=PLANE('',#522);
#524=ORIENTED_EDGE('',*,*,#512,.F.);
#525=ORIENTED_EDGE('',*,*,#501,.T.);
#526=EDGE_LOOP('',(#524,#525));
#527=FACE_OUTER_BOUND('',#526,.F.);
#528=ADVANCED_FACE('',(#527),#523,.F.);
#529=CLOSED_SHELL('',(#266,#281,#298,#311,#324,#338,#353,#366,#378,#393,#406,
#421,#434,#449,#462,#477,#490,#505,#518,#528));
#530=MANIFOLD_SOLID_BREP('',#529);
#531=DIMENSIONAL_EXPONENTS(1.E0,0.E0,0.E0,0.E0,0.E0,0.E0,0.E0);
#533=LENGTH_MEASURE_WITH_UNIT(LENGTH_MEASURE(2.54E1),#532);
#534=(CONVERSION_BASED_UNIT('INCH',#533)LENGTH_UNIT()NAMED_UNIT(#531));
#535=DIMENSIONAL_EXPONENTS(0.E0,0.E0,0.E0,0.E0,0.E0,0.E0,0.E0);
#537=PLANE_ANGLE_MEASURE_WITH_UNIT(PLANE_ANGLE_MEASURE(1.745329251994E-2),#536);
#538=(CONVERSION_BASED_UNIT('DEGREE',#537)NAMED_UNIT(*)PLANE_ANGLE_UNIT());
#540=UNCERTAINTY_MEASURE_WITH_UNIT(LENGTH_MEASURE(9.410737552554E-5),#534,
'closure',
'Maximum model space distance between geometric entities at asserted connectivities');
#541=(GEOMETRIC_REPRESENTATION_CONTEXT(3)GLOBAL_UNCERTAINTY_ASSIGNED_CONTEXT((
#540))GLOBAL_UNIT_ASSIGNED_CONTEXT((#534,#538,#539))REPRESENTATION_CONTEXT
('ID1','3'));
#543=APPLICATION_CONTEXT(
'CONFIGURATION CONTROLLED 3D DESIGNS OF MECHANICAL PARTS AND ASSEMBLIES');
#544=APPLICATION_PROTOCOL_DEFINITION('international standard',
'config_control_design',1994,#543);
#545=DESIGN_CONTEXT('',#543,'design');
#546=MECHANICAL_CONTEXT('',#543,'mechanical');
#547=PRODUCT('ILC64210420','ILC64210420','NOT SPECIFIED',(#546));
#548=PRODUCT_DEFINITION_FORMATION_WITH_SPECIFIED_SOURCE('1','LAST_VERSION',#547,
.MADE.);
#552=PRODUCT_CATEGORY('part','');
#553=PRODUCT_RELATED_PRODUCT_CATEGORY('detail','',(#547));
#554=PRODUCT_CATEGORY_RELATIONSHIP('','',#552,#553);
#555=SECURITY_CLASSIFICATION_LEVEL('unclassified');
#556=SECURITY_CLASSIFICATION('','',#555);
#557=CC_DESIGN_SECURITY_CLASSIFICATION(#556,(#548));
#558=APPROVAL_STATUS('approved');
#559=APPROVAL(#558,'');
#560=CC_DESIGN_APPROVAL(#559,(#556,#548,#549));
#561=CALENDAR_DATE(116,25,5);
#562=COORDINATED_UNIVERSAL_TIME_OFFSET(5,0,.BEHIND.);
#563=LOCAL_TIME(9,3,5.5E1,#562);
#564=DATE_AND_TIME(#561,#563);
#565=APPROVAL_DATE_TIME(#564,#559);
#566=DATE_TIME_ROLE('creation_date');
#567=CC_DESIGN_DATE_AND_TIME_ASSIGNMENT(#564,#566,(#549));
#568=DATE_TIME_ROLE('classification_date');
#569=CC_DESIGN_DATE_AND_TIME_ASSIGNMENT(#564,#568,(#556));
#570=PERSON('UNSPECIFIED','UNSPECIFIED',$,$,$,$);
#571=ORGANIZATION('UNSPECIFIED','UNSPECIFIED','UNSPECIFIED');
#572=PERSON_AND_ORGANIZATION(#570,#571);
#573=APPROVAL_ROLE('approver');
#574=APPROVAL_PERSON_ORGANIZATION(#572,#559,#573);
#575=PERSON_AND_ORGANIZATION_ROLE('creator');
#576=CC_DESIGN_PERSON_AND_ORGANIZATION_ASSIGNMENT(#572,#575,(#548,#549));
#577=PERSON_AND_ORGANIZATION_ROLE('design_supplier');
#578=CC_DESIGN_PERSON_AND_ORGANIZATION_ASSIGNMENT(#572,#577,(#548));
#579=PERSON_AND_ORGANIZATION_ROLE('classification_officer');
#580=CC_DESIGN_PERSON_AND_ORGANIZATION_ASSIGNMENT(#572,#579,(#556));
#581=PERSON_AND_ORGANIZATION_ROLE('design_owner');
#582=CC_DESIGN_PERSON_AND_ORGANIZATION_ASSIGNMENT(#572,#581,(#547));
#29=CIRCLE('',#28,1.09E-1);
#34=CIRCLE('',#33,1.09E-1);
#43=CIRCLE('',#42,5.673623181002E-1);
#48=CIRCLE('',#47,5.673623181002E-1);
#53=CIRCLE('',#52,5.673623181002E-1);
#70=CIRCLE('',#69,5.673623181002E-1);
#75=CIRCLE('',#74,6.2E-1);
#80=CIRCLE('',#79,6.2E-1);
#85=CIRCLE('',#84,5.673623181002E-1);
#90=CIRCLE('',#89,5.673623181002E-1);
#103=CIRCLE('',#102,1.5E-2);
#108=CIRCLE('',#107,1.5E-2);
#121=CIRCLE('',#120,9.4E-2);
#126=CIRCLE('',#125,9.4E-2);
#131=CIRCLE('',#130,9.4E-2);
#144=CIRCLE('',#143,9.4E-2);
#157=CIRCLE('',#156,1.23E-1);
#162=CIRCLE('',#161,1.23E-1);
#167=CIRCLE('',#166,1.23E-1);
#180=CIRCLE('',#179,1.23E-1);
#185=CIRCLE('',#184,9.4E-2);
#190=CIRCLE('',#189,9.4E-2);
#246=EDGE_CURVE('',#193,#194,#4,.T.);
#248=EDGE_CURVE('',#194,#196,#8,.T.);
#250=EDGE_CURVE('',#196,#198,#12,.T.);
#252=EDGE_CURVE('',#198,#200,#16,.T.);
#254=EDGE_CURVE('',#200,#202,#20,.T.);
#256=EDGE_CURVE('',#202,#193,#24,.T.);
#260=EDGE_CURVE('',#225,#226,#29,.T.);
#262=EDGE_CURVE('',#226,#225,#34,.T.);
#272=EDGE_CURVE('',#229,#230,#43,.T.);
#274=EDGE_CURVE('',#194,#229,#94,.T.);
#277=EDGE_CURVE('',#193,#230,#38,.T.);
#288=EDGE_CURVE('',#230,#238,#48,.T.);
#290=EDGE_CURVE('',#238,#236,#53,.T.);
#292=EDGE_CURVE('',#236,#240,#80,.T.);
#294=EDGE_CURVE('',#229,#240,#75,.T.);
#307=EDGE_CURVE('',#202,#238,#57,.T.);
#320=EDGE_CURVE('',#200,#236,#61,.T.);
#330=EDGE_CURVE('',#236,#234,#85,.T.);
#334=EDGE_CURVE('',#198,#234,#65,.T.);
#344=EDGE_CURVE('',#232,#229,#70,.T.);
#349=EDGE_CURVE('',#234,#232,#90,.T.);
#360=EDGE_CURVE('',#196,#232,#98,.T.);
#385=EDGE_CURVE('',#226,#215,#108,.T.);
#387=EDGE_CURVE('',#205,#215,#126,.T.);
#389=EDGE_CURVE('',#225,#205,#103,.T.);
#401=EDGE_CURVE('',#205,#215,#121,.T.);
#412=EDGE_CURVE('',#205,#206,#112,.T.);
#414=EDGE_CURVE('',#206,#216,#144,.T.);
#416=EDGE_CURVE('',#215,#216,#116,.T.);
#430=EDGE_CURVE('',#206,#216,#131,.T.);
#440=EDGE_CURVE('',#206,#208,#135,.T.);
#443=EDGE_CURVE('',#216,#218,#139,.T.);
#445=EDGE_CURVE('',#208,#218,#162,.T.);
#456=EDGE_CURVE('',#208,#218,#157,.T.);
#468=EDGE_CURVE('',#208,#210,#148,.T.);
#470=EDGE_CURVE('',#210,#220,#180,.T.);
#472=EDGE_CURVE('',#218,#220,#152,.T.);
#486=EDGE_CURVE('',#210,#220,#167,.T.);
#496=EDGE_CURVE('',#210,#212,#171,.T.);
#499=EDGE_CURVE('',#220,#222,#175,.T.);
#501=EDGE_CURVE('',#212,#222,#190,.T.);
#512=EDGE_CURVE('',#212,#222,#185,.T.);
#532=(LENGTH_UNIT()NAMED_UNIT(*)SI_UNIT(.MILLI.,.METRE.));
#536=(NAMED_UNIT(*)PLANE_ANGLE_UNIT()SI_UNIT($,.RADIAN.));
#539=(NAMED_UNIT(*)SI_UNIT($,.STERADIAN.)SOLID_ANGLE_UNIT());
#542=ADVANCED_BREP_SHAPE_REPRESENTATION('',(#530),#541);
#549=PRODUCT_DEFINITION('design','',#548,#545);
#550=PRODUCT_DEFINITION_SHAPE('','SHAPE FOR ILC64210420.',#549);
#551=SHAPE_DEFINITION_REPRESENTATION(#550,#542);
ENDSEC;
END-ISO-10303-21;
