ISO-10303-21;
HEADER;
FILE_DESCRIPTION((''),'2;1');
FILE_NAME('91601602','2004-10-13T',('KR'),(''),
'PRO/ENGINEER BY PARAMETRIC TECHNOLOGY CORPORATION, 2004290',
'PRO/ENGINEER BY PARAMETRIC TECHNOLOGY CORPORATION, 2004290','');
FILE_SCHEMA(('CONFIG_CONTROL_DESIGN'));
ENDSEC;
DATA;
#1=CARTESIAN_POINT('',(0.E0,0.E0,-7.5E-1));
#2=DIRECTION('',(0.E0,0.E0,-1.E0));
#3=DIRECTION('',(-1.E0,0.E0,0.E0));
#4=AXIS2_PLACEMENT_3D('',#1,#2,#3);
#6=CARTESIAN_POINT('',(0.E0,0.E0,-7.5E-1));
#7=DIRECTION('',(0.E0,0.E0,-1.E0));
#8=DIRECTION('',(1.E0,0.E0,0.E0));
#9=AXIS2_PLACEMENT_3D('',#6,#7,#8);
#11=CARTESIAN_POINT('',(-2.125E0,2.5E-1,-7.5E-1));
#12=DIRECTION('',(0.E0,0.E0,-1.E0));
#13=DIRECTION('',(-1.E0,0.E0,0.E0));
#14=AXIS2_PLACEMENT_3D('',#11,#12,#13);
#16=CARTESIAN_POINT('',(-2.125E0,2.5E-1,-7.5E-1));
#17=DIRECTION('',(0.E0,0.E0,-1.E0));
#18=DIRECTION('',(1.E0,0.E0,0.E0));
#19=AXIS2_PLACEMENT_3D('',#16,#17,#18);
#21=DIRECTION('',(-1.E0,0.E0,0.E0));
#22=VECTOR('',#21,6.995E0);
#23=CARTESIAN_POINT('',(-5.E-3,1.375E0,-7.5E-1));
#24=LINE('',#23,#22);
#25=DIRECTION('',(0.E0,-1.E0,0.E0));
#26=VECTOR('',#25,2.E0);
#27=CARTESIAN_POINT('',(-7.E0,1.375E0,-7.5E-1));
#28=LINE('',#27,#26);
#29=DIRECTION('',(1.E0,0.E0,0.E0));
#30=VECTOR('',#29,6.995E0);
#31=CARTESIAN_POINT('',(-7.E0,-6.25E-1,-7.5E-1));
#32=LINE('',#31,#30);
#33=DIRECTION('',(0.E0,1.E0,0.E0));
#34=VECTOR('',#33,7.4E-1);
#35=CARTESIAN_POINT('',(6.25E-1,5.E-3,-7.5E-1));
#36=LINE('',#35,#34);
#37=DIRECTION('',(0.E0,0.E0,-1.E0));
#38=VECTOR('',#37,3.7E-1);
#39=CARTESIAN_POINT('',(-3.1325E-1,0.E0,-3.8E-1));
#40=LINE('',#39,#38);
#41=DIRECTION('',(0.E0,0.E0,-1.E0));
#42=VECTOR('',#41,3.7E-1);
#43=CARTESIAN_POINT('',(-3.1325E-1,0.E0,7.5E-1));
#44=LINE('',#43,#42);
#45=CARTESIAN_POINT('',(0.E0,0.E0,-3.8E-1));
#46=DIRECTION('',(0.E0,0.E0,-1.E0));
#47=DIRECTION('',(-1.E0,0.E0,0.E0));
#48=AXIS2_PLACEMENT_3D('',#45,#46,#47);
#50=CARTESIAN_POINT('',(0.E0,0.E0,-3.8E-1));
#51=DIRECTION('',(0.E0,0.E0,-1.E0));
#52=DIRECTION('',(1.E0,0.E0,0.E0));
#53=AXIS2_PLACEMENT_3D('',#50,#51,#52);
#55=CARTESIAN_POINT('',(-5.E-3,5.E-3,-3.8E-1));
#56=DIRECTION('',(0.E0,0.E0,-1.E0));
#57=DIRECTION('',(1.E0,0.E0,0.E0));
#58=AXIS2_PLACEMENT_3D('',#55,#56,#57);
#60=DIRECTION('',(0.E0,1.E0,0.E0));
#61=VECTOR('',#60,1.5E0);
#62=CARTESIAN_POINT('',(-8.75E-1,-6.25E-1,-3.8E-1));
#63=LINE('',#62,#61);
#64=DIRECTION('',(0.E0,0.E0,-1.E0));
#65=VECTOR('',#64,3.7E-1);
#66=CARTESIAN_POINT('',(3.1325E-1,0.E0,-3.8E-1));
#67=LINE('',#66,#65);
#68=DIRECTION('',(0.E0,0.E0,-1.E0));
#69=VECTOR('',#68,3.7E-1);
#70=CARTESIAN_POINT('',(3.1325E-1,0.E0,7.5E-1));
#71=LINE('',#70,#69);
#72=CARTESIAN_POINT('',(0.E0,0.E0,3.8E-1));
#73=DIRECTION('',(0.E0,0.E0,-1.E0));
#74=DIRECTION('',(-1.E0,0.E0,0.E0));
#75=AXIS2_PLACEMENT_3D('',#72,#73,#74);
#77=CARTESIAN_POINT('',(0.E0,0.E0,3.8E-1));
#78=DIRECTION('',(0.E0,0.E0,-1.E0));
#79=DIRECTION('',(1.E0,0.E0,0.E0));
#80=AXIS2_PLACEMENT_3D('',#77,#78,#79);
#82=CARTESIAN_POINT('',(-5.E-3,5.E-3,3.8E-1));
#83=DIRECTION('',(0.E0,0.E0,-1.E0));
#84=DIRECTION('',(1.E0,0.E0,0.E0));
#85=AXIS2_PLACEMENT_3D('',#82,#83,#84);
#87=DIRECTION('',(0.E0,0.E0,-1.E0));
#88=VECTOR('',#87,1.5E0);
#89=CARTESIAN_POINT('',(-5.E-3,1.375E0,7.5E-1));
#90=LINE('',#89,#88);
#91=CARTESIAN_POINT('',(-5.E-3,7.45E-1,-7.5E-1));
#92=DIRECTION('',(0.E0,0.E0,-1.E0));
#93=DIRECTION('',(0.E0,1.E0,0.E0));
#94=AXIS2_PLACEMENT_3D('',#91,#92,#93);
#96=DIRECTION('',(0.E0,0.E0,-1.E0));
#97=VECTOR('',#96,3.7E-1);
#98=CARTESIAN_POINT('',(6.25E-1,7.45E-1,-3.8E-1));
#99=LINE('',#98,#97);
#100=CARTESIAN_POINT('',(-5.E-3,7.45E-1,-3.8E-1));
#101=DIRECTION('',(0.E0,0.E0,-1.E0));
#102=DIRECTION('',(9.784784131697E-1,2.063492063492E-1,0.E0));
#103=AXIS2_PLACEMENT_3D('',#100,#101,#102);
#105=DIRECTION('',(0.E0,0.E0,1.E0));
#106=VECTOR('',#105,7.6E-1);
#107=CARTESIAN_POINT('',(6.114414002969E-1,8.75E-1,-3.8E-1));
#108=LINE('',#107,#106);
#109=CARTESIAN_POINT('',(-5.E-3,7.45E-1,3.8E-1));
#110=DIRECTION('',(0.E0,0.E0,-1.E0));
#111=DIRECTION('',(9.784784131697E-1,2.063492063492E-1,0.E0));
#112=AXIS2_PLACEMENT_3D('',#109,#110,#111);
#114=DIRECTION('',(0.E0,0.E0,-1.E0));
#115=VECTOR('',#114,3.7E-1);
#116=CARTESIAN_POINT('',(6.25E-1,7.45E-1,7.5E-1));
#117=LINE('',#116,#115);
#118=CARTESIAN_POINT('',(-5.E-3,7.45E-1,7.5E-1));
#119=DIRECTION('',(0.E0,0.E0,1.E0));
#120=DIRECTION('',(1.E0,0.E0,0.E0));
#121=AXIS2_PLACEMENT_3D('',#118,#119,#120);
#123=CARTESIAN_POINT('',(0.E0,0.E0,7.5E-1));
#124=DIRECTION('',(0.E0,0.E0,-1.E0));
#125=DIRECTION('',(-1.E0,0.E0,0.E0));
#126=AXIS2_PLACEMENT_3D('',#123,#124,#125);
#128=CARTESIAN_POINT('',(0.E0,0.E0,7.5E-1));
#129=DIRECTION('',(0.E0,0.E0,-1.E0));
#130=DIRECTION('',(1.E0,0.E0,0.E0));
#131=AXIS2_PLACEMENT_3D('',#128,#129,#130);
#133=CARTESIAN_POINT('',(-2.125E0,2.5E-1,7.5E-1));
#134=DIRECTION('',(0.E0,0.E0,-1.E0));
#135=DIRECTION('',(-1.E0,0.E0,0.E0));
#136=AXIS2_PLACEMENT_3D('',#133,#134,#135);
#138=CARTESIAN_POINT('',(-2.125E0,2.5E-1,7.5E-1));
#139=DIRECTION('',(0.E0,0.E0,-1.E0));
#140=DIRECTION('',(1.E0,0.E0,0.E0));
#141=AXIS2_PLACEMENT_3D('',#138,#139,#140);
#143=DIRECTION('',(0.E0,1.E0,0.E0));
#144=VECTOR('',#143,7.4E-1);
#145=CARTESIAN_POINT('',(6.25E-1,5.E-3,7.5E-1));
#146=LINE('',#145,#144);
#147=DIRECTION('',(1.E0,0.E0,0.E0));
#148=VECTOR('',#147,6.995E0);
#149=CARTESIAN_POINT('',(-7.E0,-6.25E-1,7.5E-1));
#150=LINE('',#149,#148);
#151=DIRECTION('',(0.E0,-1.E0,0.E0));
#152=VECTOR('',#151,2.E0);
#153=CARTESIAN_POINT('',(-7.E0,1.375E0,7.5E-1));
#154=LINE('',#153,#152);
#155=DIRECTION('',(-1.E0,0.E0,0.E0));
#156=VECTOR('',#155,6.995E0);
#157=CARTESIAN_POINT('',(-5.E-3,1.375E0,7.5E-1));
#158=LINE('',#157,#156);
#159=DIRECTION('',(0.E0,0.E0,-1.E0));
#160=VECTOR('',#159,1.5E0);
#161=CARTESIAN_POINT('',(-2.50025E0,2.5E-1,7.5E-1));
#162=LINE('',#161,#160);
#163=DIRECTION('',(0.E0,0.E0,-1.E0));
#164=VECTOR('',#163,1.5E0);
#165=CARTESIAN_POINT('',(-1.74975E0,2.5E-1,7.5E-1));
#166=LINE('',#165,#164);
#167=DIRECTION('',(0.E0,1.E0,0.E0));
#168=VECTOR('',#167,7.4E-1);
#169=CARTESIAN_POINT('',(6.25E-1,5.E-3,3.8E-1));
#170=LINE('',#169,#168);
#171=DIRECTION('',(0.E0,1.E0,0.E0));
#172=VECTOR('',#171,7.4E-1);
#173=CARTESIAN_POINT('',(6.25E-1,5.E-3,-3.8E-1));
#174=LINE('',#173,#172);
#175=DIRECTION('',(0.E0,0.E0,-1.E0));
#176=VECTOR('',#175,3.7E-1);
#177=CARTESIAN_POINT('',(-5.E-3,-6.25E-1,7.5E-1));
#178=LINE('',#177,#176);
#179=CARTESIAN_POINT('',(-5.E-3,5.E-3,7.5E-1));
#180=DIRECTION('',(0.E0,0.E0,1.E0));
#181=DIRECTION('',(0.E0,-1.E0,0.E0));
#182=AXIS2_PLACEMENT_3D('',#179,#180,#181);
#184=DIRECTION('',(0.E0,0.E0,-1.E0));
#185=VECTOR('',#184,3.7E-1);
#186=CARTESIAN_POINT('',(6.25E-1,5.E-3,7.5E-1));
#187=LINE('',#186,#185);
#188=DIRECTION('',(0.E0,0.E0,-1.E0));
#189=VECTOR('',#188,3.7E-1);
#190=CARTESIAN_POINT('',(6.25E-1,5.E-3,-3.8E-1));
#191=LINE('',#190,#189);
#192=CARTESIAN_POINT('',(-5.E-3,5.E-3,-7.5E-1));
#193=DIRECTION('',(0.E0,0.E0,-1.E0));
#194=DIRECTION('',(1.E0,0.E0,0.E0));
#195=AXIS2_PLACEMENT_3D('',#192,#193,#194);
#197=DIRECTION('',(0.E0,0.E0,-1.E0));
#198=VECTOR('',#197,3.7E-1);
#199=CARTESIAN_POINT('',(-5.E-3,-6.25E-1,-3.8E-1));
#200=LINE('',#199,#198);
#201=DIRECTION('',(1.E0,0.E0,0.E0));
#202=VECTOR('',#201,8.7E-1);
#203=CARTESIAN_POINT('',(-8.75E-1,-6.25E-1,-3.8E-1));
#204=LINE('',#203,#202);
#205=DIRECTION('',(0.E0,0.E0,1.E0));
#206=VECTOR('',#205,1.5E0);
#207=CARTESIAN_POINT('',(-7.E0,-6.25E-1,-7.5E-1));
#208=LINE('',#207,#206);
#209=DIRECTION('',(1.E0,0.E0,0.E0));
#210=VECTOR('',#209,8.7E-1);
#211=CARTESIAN_POINT('',(-8.75E-1,-6.25E-1,3.8E-1));
#212=LINE('',#211,#210);
#213=CARTESIAN_POINT('',(-8.75E-1,-6.25E-1,0.E0));
#214=DIRECTION('',(0.E0,-1.E0,0.E0));
#215=DIRECTION('',(0.E0,0.E0,1.E0));
#216=AXIS2_PLACEMENT_3D('',#213,#214,#215);
#218=DIRECTION('',(0.E0,0.E0,1.E0));
#219=VECTOR('',#218,1.5E0);
#220=CARTESIAN_POINT('',(-7.E0,1.375E0,-7.5E-1));
#221=LINE('',#220,#219);
#222=DIRECTION('',(0.E0,1.E0,0.E0));
#223=VECTOR('',#222,1.5E0);
#224=CARTESIAN_POINT('',(-8.75E-1,-6.25E-1,3.8E-1));
#225=LINE('',#224,#223);
#226=DIRECTION('',(1.E0,0.E0,0.E0));
#227=VECTOR('',#226,1.486441400297E0);
#228=CARTESIAN_POINT('',(-8.75E-1,8.75E-1,-3.8E-1));
#229=LINE('',#228,#227);
#230=CARTESIAN_POINT('',(-8.75E-1,8.75E-1,0.E0));
#231=DIRECTION('',(0.E0,-1.E0,0.E0));
#232=DIRECTION('',(0.E0,0.E0,1.E0));
#233=AXIS2_PLACEMENT_3D('',#230,#231,#232);
#235=DIRECTION('',(-1.E0,0.E0,0.E0));
#236=VECTOR('',#235,1.486441400297E0);
#237=CARTESIAN_POINT('',(6.114414002969E-1,8.75E-1,3.8E-1));
#238=LINE('',#237,#236);
#239=CARTESIAN_POINT('',(-7.E0,1.375E0,-7.5E-1));
#240=CARTESIAN_POINT('',(-7.E0,-6.25E-1,-7.5E-1));
#241=VERTEX_POINT('',#239);
#242=VERTEX_POINT('',#240);
#243=CARTESIAN_POINT('',(-7.E0,1.375E0,7.5E-1));
#244=CARTESIAN_POINT('',(-7.E0,-6.25E-1,7.5E-1));
#245=VERTEX_POINT('',#243);
#246=VERTEX_POINT('',#244);
#247=CARTESIAN_POINT('',(-3.1325E-1,0.E0,-7.5E-1));
#248=CARTESIAN_POINT('',(3.1325E-1,0.E0,-7.5E-1));
#249=VERTEX_POINT('',#247);
#250=VERTEX_POINT('',#248);
#251=CARTESIAN_POINT('',(-3.1325E-1,0.E0,7.5E-1));
#252=CARTESIAN_POINT('',(3.1325E-1,0.E0,7.5E-1));
#253=VERTEX_POINT('',#251);
#254=VERTEX_POINT('',#252);
#255=CARTESIAN_POINT('',(-2.50025E0,2.5E-1,-7.5E-1));
#256=CARTESIAN_POINT('',(-1.74975E0,2.5E-1,-7.5E-1));
#257=VERTEX_POINT('',#255);
#258=VERTEX_POINT('',#256);
#259=CARTESIAN_POINT('',(-2.50025E0,2.5E-1,7.5E-1));
#260=CARTESIAN_POINT('',(-1.74975E0,2.5E-1,7.5E-1));
#261=VERTEX_POINT('',#259);
#262=VERTEX_POINT('',#260);
#263=CARTESIAN_POINT('',(-8.75E-1,-6.25E-1,-3.8E-1));
#264=CARTESIAN_POINT('',(-5.E-3,-6.25E-1,-3.8E-1));
#265=VERTEX_POINT('',#263);
#266=VERTEX_POINT('',#264);
#267=CARTESIAN_POINT('',(-8.75E-1,-6.25E-1,3.8E-1));
#268=CARTESIAN_POINT('',(-5.E-3,-6.25E-1,3.8E-1));
#269=VERTEX_POINT('',#267);
#270=VERTEX_POINT('',#268);
#271=CARTESIAN_POINT('',(-3.1325E-1,0.E0,-3.8E-1));
#272=CARTESIAN_POINT('',(3.1325E-1,0.E0,-3.8E-1));
#273=VERTEX_POINT('',#271);
#274=VERTEX_POINT('',#272);
#275=CARTESIAN_POINT('',(-3.1325E-1,0.E0,3.8E-1));
#276=CARTESIAN_POINT('',(3.1325E-1,0.E0,3.8E-1));
#277=VERTEX_POINT('',#275);
#278=VERTEX_POINT('',#276);
#279=CARTESIAN_POINT('',(-5.E-3,-6.25E-1,-7.5E-1));
#280=VERTEX_POINT('',#279);
#281=CARTESIAN_POINT('',(-5.E-3,-6.25E-1,7.5E-1));
#282=VERTEX_POINT('',#281);
#283=CARTESIAN_POINT('',(6.25E-1,5.E-3,-7.5E-1));
#284=VERTEX_POINT('',#283);
#285=CARTESIAN_POINT('',(6.25E-1,5.E-3,7.5E-1));
#286=VERTEX_POINT('',#285);
#287=CARTESIAN_POINT('',(-8.75E-1,8.75E-1,3.8E-1));
#288=CARTESIAN_POINT('',(-8.75E-1,8.75E-1,-3.8E-1));
#289=VERTEX_POINT('',#287);
#290=VERTEX_POINT('',#288);
#291=CARTESIAN_POINT('',(6.25E-1,5.E-3,3.8E-1));
#292=VERTEX_POINT('',#291);
#293=CARTESIAN_POINT('',(6.25E-1,5.E-3,-3.8E-1));
#294=VERTEX_POINT('',#293);
#295=CARTESIAN_POINT('',(6.25E-1,7.45E-1,7.5E-1));
#296=CARTESIAN_POINT('',(6.25E-1,7.45E-1,3.8E-1));
#297=VERTEX_POINT('',#295);
#298=VERTEX_POINT('',#296);
#299=CARTESIAN_POINT('',(-5.E-3,1.375E0,7.5E-1));
#300=VERTEX_POINT('',#299);
#301=CARTESIAN_POINT('',(-5.E-3,1.375E0,-7.5E-1));
#302=VERTEX_POINT('',#301);
#303=CARTESIAN_POINT('',(6.25E-1,7.45E-1,-7.5E-1));
#304=VERTEX_POINT('',#303);
#305=CARTESIAN_POINT('',(6.114414002969E-1,8.75E-1,3.8E-1));
#306=VERTEX_POINT('',#305);
#307=CARTESIAN_POINT('',(6.114414002969E-1,8.75E-1,-3.8E-1));
#308=VERTEX_POINT('',#307);
#309=CARTESIAN_POINT('',(6.25E-1,7.45E-1,-3.8E-1));
#310=VERTEX_POINT('',#309);
#311=CARTESIAN_POINT('',(0.E0,0.E0,-7.5E-1));
#312=DIRECTION('',(0.E0,0.E0,1.E0));
#313=DIRECTION('',(1.E0,0.E0,0.E0));
#314=AXIS2_PLACEMENT_3D('',#311,#312,#313);
#315=PLANE('',#314);
#317=ORIENTED_EDGE('',*,*,#316,.T.);
#319=ORIENTED_EDGE('',*,*,#318,.T.);
#321=ORIENTED_EDGE('',*,*,#320,.T.);
#323=ORIENTED_EDGE('',*,*,#322,.F.);
#325=ORIENTED_EDGE('',*,*,#324,.T.);
#327=ORIENTED_EDGE('',*,*,#326,.F.);
#328=EDGE_LOOP('',(#317,#319,#321,#323,#325,#327));
#329=FACE_OUTER_BOUND('',#328,.F.);
#331=ORIENTED_EDGE('',*,*,#330,.T.);
#333=ORIENTED_EDGE('',*,*,#332,.T.);
#334=EDGE_LOOP('',(#331,#333));
#335=FACE_BOUND('',#334,.F.);
#337=ORIENTED_EDGE('',*,*,#336,.T.);
#339=ORIENTED_EDGE('',*,*,#338,.T.);
#340=EDGE_LOOP('',(#337,#339));
#341=FACE_BOUND('',#340,.F.);
#342=ADVANCED_FACE('',(#329,#335,#341),#315,.F.);
#343=CARTESIAN_POINT('',(0.E0,0.E0,9.E-1));
#344=DIRECTION('',(0.E0,0.E0,-1.E0));
#345=DIRECTION('',(-1.E0,0.E0,0.E0));
#346=AXIS2_PLACEMENT_3D('',#343,#344,#345);
#347=CYLINDRICAL_SURFACE('',#346,3.1325E-1);
#349=ORIENTED_EDGE('',*,*,#348,.T.);
#351=ORIENTED_EDGE('',*,*,#350,.T.);
#352=ORIENTED_EDGE('',*,*,#330,.F.);
#354=ORIENTED_EDGE('',*,*,#353,.F.);
#355=EDGE_LOOP('',(#349,#351,#352,#354));
#356=FACE_OUTER_BOUND('',#355,.F.);
#357=ADVANCED_FACE('',(#356),#347,.F.);
#358=CARTESIAN_POINT('',(0.E0,0.E0,9.E-1));
#359=DIRECTION('',(0.E0,0.E0,-1.E0));
#360=DIRECTION('',(-1.E0,0.E0,0.E0));
#361=AXIS2_PLACEMENT_3D('',#358,#359,#360);
#362=CYLINDRICAL_SURFACE('',#361,3.1325E-1);
#364=ORIENTED_EDGE('',*,*,#363,.F.);
#366=ORIENTED_EDGE('',*,*,#365,.F.);
#368=ORIENTED_EDGE('',*,*,#367,.T.);
#370=ORIENTED_EDGE('',*,*,#369,.T.);
#371=EDGE_LOOP('',(#364,#366,#368,#370));
#372=FACE_OUTER_BOUND('',#371,.F.);
#373=ADVANCED_FACE('',(#372),#362,.F.);
#374=CARTESIAN_POINT('',(-8.75E-1,-6.25E-1,-3.8E-1));
#375=DIRECTION('',(0.E0,0.E0,-1.E0));
#376=DIRECTION('',(1.E0,0.E0,0.E0));
#377=AXIS2_PLACEMENT_3D('',#374,#375,#376);
#378=PLANE('',#377);
#380=ORIENTED_EDGE('',*,*,#379,.T.);
#382=ORIENTED_EDGE('',*,*,#381,.F.);
#384=ORIENTED_EDGE('',*,*,#383,.T.);
#386=ORIENTED_EDGE('',*,*,#385,.F.);
#388=ORIENTED_EDGE('',*,*,#387,.T.);
#390=ORIENTED_EDGE('',*,*,#389,.T.);
#391=EDGE_LOOP('',(#380,#382,#384,#386,#388,#390));
#392=FACE_OUTER_BOUND('',#391,.F.);
#393=ORIENTED_EDGE('',*,*,#348,.F.);
#395=ORIENTED_EDGE('',*,*,#394,.F.);
#396=EDGE_LOOP('',(#393,#395));
#397=FACE_BOUND('',#396,.F.);
#398=ADVANCED_FACE('',(#392,#397),#378,.F.);
#399=CARTESIAN_POINT('',(0.E0,0.E0,9.E-1));
#400=DIRECTION('',(0.E0,0.E0,-1.E0));
#401=DIRECTION('',(-1.E0,0.E0,0.E0));
#402=AXIS2_PLACEMENT_3D('',#399,#400,#401);
#403=CYLINDRICAL_SURFACE('',#402,3.1325E-1);
#404=ORIENTED_EDGE('',*,*,#394,.T.);
#405=ORIENTED_EDGE('',*,*,#353,.T.);
#406=ORIENTED_EDGE('',*,*,#332,.F.);
#407=ORIENTED_EDGE('',*,*,#350,.F.);
#408=EDGE_LOOP('',(#404,#405,#406,#407));
#409=FACE_OUTER_BOUND('',#408,.F.);
#410=ADVANCED_FACE('',(#409),#403,.F.);
#411=CARTESIAN_POINT('',(0.E0,0.E0,9.E-1));
#412=DIRECTION('',(0.E0,0.E0,-1.E0));
#413=DIRECTION('',(-1.E0,0.E0,0.E0));
#414=AXIS2_PLACEMENT_3D('',#411,#412,#413);
#415=CYLINDRICAL_SURFACE('',#414,3.1325E-1);
#417=ORIENTED_EDGE('',*,*,#416,.F.);
#418=ORIENTED_EDGE('',*,*,#369,.F.);
#420=ORIENTED_EDGE('',*,*,#419,.T.);
#421=ORIENTED_EDGE('',*,*,#365,.T.);
#422=EDGE_LOOP('',(#417,#418,#420,#421));
#423=FACE_OUTER_BOUND('',#422,.F.);
#424=ADVANCED_FACE('',(#423),#415,.F.);
#425=CARTESIAN_POINT('',(6.25E-1,-6.25E-1,3.8E-1));
#426=DIRECTION('',(0.E0,0.E0,1.E0));
#427=DIRECTION('',(-1.E0,0.E0,0.E0));
#428=AXIS2_PLACEMENT_3D('',#425,#426,#427);
#429=PLANE('',#428);
#431=ORIENTED_EDGE('',*,*,#430,.F.);
#433=ORIENTED_EDGE('',*,*,#432,.T.);
#435=ORIENTED_EDGE('',*,*,#434,.F.);
#437=ORIENTED_EDGE('',*,*,#436,.T.);
#439=ORIENTED_EDGE('',*,*,#438,.F.);
#441=ORIENTED_EDGE('',*,*,#440,.T.);
#442=EDGE_LOOP('',(#431,#433,#435,#437,#439,#441));
#443=FACE_OUTER_BOUND('',#442,.F.);
#444=ORIENTED_EDGE('',*,*,#363,.T.);
#445=ORIENTED_EDGE('',*,*,#416,.T.);
#446=EDGE_LOOP('',(#444,#445));
#447=FACE_BOUND('',#446,.F.);
#448=ADVANCED_FACE('',(#443,#447),#429,.F.);
#449=CARTESIAN_POINT('',(-5.E-3,7.45E-1,7.625560427471E-1));
#450=DIRECTION('',(0.E0,0.E0,-1.E0));
#451=DIRECTION('',(0.E0,1.E0,0.E0));
#452=AXIS2_PLACEMENT_3D('',#449,#450,#451);
#453=CYLINDRICAL_SURFACE('',#452,6.3E-1);
#455=ORIENTED_EDGE('',*,*,#454,.T.);
#456=ORIENTED_EDGE('',*,*,#326,.T.);
#458=ORIENTED_EDGE('',*,*,#457,.F.);
#459=ORIENTED_EDGE('',*,*,#379,.F.);
#461=ORIENTED_EDGE('',*,*,#460,.T.);
#462=ORIENTED_EDGE('',*,*,#430,.T.);
#464=ORIENTED_EDGE('',*,*,#463,.F.);
#466=ORIENTED_EDGE('',*,*,#465,.T.);
#467=EDGE_LOOP('',(#455,#456,#458,#459,#461,#462,#464,#466));
#468=FACE_OUTER_BOUND('',#467,.F.);
#469=ADVANCED_FACE('',(#468),#453,.T.);
#470=CARTESIAN_POINT('',(6.25E-1,1.375E0,-7.5E-1));
#471=DIRECTION('',(0.E0,1.E0,0.E0));
#472=DIRECTION('',(-1.E0,0.E0,0.E0));
#473=AXIS2_PLACEMENT_3D('',#470,#471,#472);
#474=PLANE('',#473);
#475=ORIENTED_EDGE('',*,*,#454,.F.);
#477=ORIENTED_EDGE('',*,*,#476,.T.);
#479=ORIENTED_EDGE('',*,*,#478,.F.);
#480=ORIENTED_EDGE('',*,*,#316,.F.);
#481=EDGE_LOOP('',(#475,#477,#479,#480));
#482=FACE_OUTER_BOUND('',#481,.F.);
#483=ADVANCED_FACE('',(#482),#474,.T.);
#484=CARTESIAN_POINT('',(0.E0,0.E0,7.5E-1));
#485=DIRECTION('',(0.E0,0.E0,1.E0));
#486=DIRECTION('',(1.E0,0.E0,0.E0));
#487=AXIS2_PLACEMENT_3D('',#484,#485,#486);
#488=PLANE('',#487);
#489=ORIENTED_EDGE('',*,*,#465,.F.);
#491=ORIENTED_EDGE('',*,*,#490,.F.);
#493=ORIENTED_EDGE('',*,*,#492,.F.);
#495=ORIENTED_EDGE('',*,*,#494,.F.);
#497=ORIENTED_EDGE('',*,*,#496,.F.);
#498=ORIENTED_EDGE('',*,*,#476,.F.);
#499=EDGE_LOOP('',(#489,#491,#493,#495,#497,#498));
#500=FACE_OUTER_BOUND('',#499,.F.);
#501=ORIENTED_EDGE('',*,*,#367,.F.);
#502=ORIENTED_EDGE('',*,*,#419,.F.);
#503=EDGE_LOOP('',(#501,#502));
#504=FACE_BOUND('',#503,.F.);
#506=ORIENTED_EDGE('',*,*,#505,.F.);
#508=ORIENTED_EDGE('',*,*,#507,.F.);
#509=EDGE_LOOP('',(#506,#508));
#510=FACE_BOUND('',#509,.F.);
#511=ADVANCED_FACE('',(#500,#504,#510),#488,.T.);
#512=CARTESIAN_POINT('',(-2.125E0,2.5E-1,9.E-1));
#513=DIRECTION('',(0.E0,0.E0,-1.E0));
#514=DIRECTION('',(-1.E0,0.E0,0.E0));
#515=AXIS2_PLACEMENT_3D('',#512,#513,#514);
#516=CYLINDRICAL_SURFACE('',#515,3.7525E-1);
#517=ORIENTED_EDGE('',*,*,#336,.F.);
#519=ORIENTED_EDGE('',*,*,#518,.F.);
#520=ORIENTED_EDGE('',*,*,#505,.T.);
#522=ORIENTED_EDGE('',*,*,#521,.T.);
#523=EDGE_LOOP('',(#517,#519,#520,#522));
#524=FACE_OUTER_BOUND('',#523,.F.);
#525=ADVANCED_FACE('',(#524),#516,.F.);
#526=CARTESIAN_POINT('',(-2.125E0,2.5E-1,9.E-1));
#527=DIRECTION('',(0.E0,0.E0,-1.E0));
#528=DIRECTION('',(-1.E0,0.E0,0.E0));
#529=AXIS2_PLACEMENT_3D('',#526,#527,#528);
#530=CYLINDRICAL_SURFACE('',#529,3.7525E-1);
#531=ORIENTED_EDGE('',*,*,#338,.F.);
#532=ORIENTED_EDGE('',*,*,#521,.F.);
#533=ORIENTED_EDGE('',*,*,#507,.T.);
#534=ORIENTED_EDGE('',*,*,#518,.T.);
#535=EDGE_LOOP('',(#531,#532,#533,#534));
#536=FACE_OUTER_BOUND('',#535,.F.);
#537=ADVANCED_FACE('',(#536),#530,.F.);
#538=CARTESIAN_POINT('',(6.25E-1,-6.25E-1,-7.5E-1));
#539=DIRECTION('',(1.E0,0.E0,0.E0));
#540=DIRECTION('',(0.E0,1.E0,0.E0));
#541=AXIS2_PLACEMENT_3D('',#538,#539,#540);
#542=PLANE('',#541);
#543=ORIENTED_EDGE('',*,*,#463,.T.);
#544=ORIENTED_EDGE('',*,*,#440,.F.);
#546=ORIENTED_EDGE('',*,*,#545,.F.);
#547=ORIENTED_EDGE('',*,*,#490,.T.);
#548=EDGE_LOOP('',(#543,#544,#546,#547));
#549=FACE_OUTER_BOUND('',#548,.F.);
#550=ADVANCED_FACE('',(#549),#542,.T.);
#551=CARTESIAN_POINT('',(6.25E-1,-6.25E-1,-7.5E-1));
#552=DIRECTION('',(1.E0,0.E0,0.E0));
#553=DIRECTION('',(0.E0,1.E0,0.E0));
#554=AXIS2_PLACEMENT_3D('',#551,#552,#553);
#555=PLANE('',#554);
#556=ORIENTED_EDGE('',*,*,#324,.F.);
#558=ORIENTED_EDGE('',*,*,#557,.F.);
#559=ORIENTED_EDGE('',*,*,#381,.T.);
#560=ORIENTED_EDGE('',*,*,#457,.T.);
#561=EDGE_LOOP('',(#556,#558,#559,#560));
#562=FACE_OUTER_BOUND('',#561,.F.);
#563=ADVANCED_FACE('',(#562),#555,.T.);
#564=CARTESIAN_POINT('',(-5.E-3,5.E-3,7.625560427471E-1));
#565=DIRECTION('',(0.E0,0.E0,-1.E0));
#566=DIRECTION('',(1.E0,0.E0,0.E0));
#567=AXIS2_PLACEMENT_3D('',#564,#565,#566);
#568=CYLINDRICAL_SURFACE('',#567,6.3E-1);
#569=ORIENTED_EDGE('',*,*,#438,.T.);
#571=ORIENTED_EDGE('',*,*,#570,.F.);
#572=ORIENTED_EDGE('',*,*,#492,.T.);
#573=ORIENTED_EDGE('',*,*,#545,.T.);
#574=EDGE_LOOP('',(#569,#571,#572,#573));
#575=FACE_OUTER_BOUND('',#574,.F.);
#576=ADVANCED_FACE('',(#575),#568,.T.);
#577=CARTESIAN_POINT('',(-5.E-3,5.E-3,7.625560427471E-1));
#578=DIRECTION('',(0.E0,0.E0,-1.E0));
#579=DIRECTION('',(1.E0,0.E0,0.E0));
#580=AXIS2_PLACEMENT_3D('',#577,#578,#579);
#581=CYLINDRICAL_SURFACE('',#580,6.3E-1);
#582=ORIENTED_EDGE('',*,*,#383,.F.);
#583=ORIENTED_EDGE('',*,*,#557,.T.);
#584=ORIENTED_EDGE('',*,*,#322,.T.);
#586=ORIENTED_EDGE('',*,*,#585,.F.);
#587=EDGE_LOOP('',(#582,#583,#584,#586));
#588=FACE_OUTER_BOUND('',#587,.F.);
#589=ADVANCED_FACE('',(#588),#581,.T.);
#590=CARTESIAN_POINT('',(-7.E0,-6.25E-1,-7.5E-1));
#591=DIRECTION('',(0.E0,-1.E0,0.E0));
#592=DIRECTION('',(1.E0,0.E0,0.E0));
#593=AXIS2_PLACEMENT_3D('',#590,#591,#592);
#594=PLANE('',#593);
#595=ORIENTED_EDGE('',*,*,#385,.T.);
#596=ORIENTED_EDGE('',*,*,#585,.T.);
#597=ORIENTED_EDGE('',*,*,#320,.F.);
#599=ORIENTED_EDGE('',*,*,#598,.T.);
#600=ORIENTED_EDGE('',*,*,#494,.T.);
#601=ORIENTED_EDGE('',*,*,#570,.T.);
#602=ORIENTED_EDGE('',*,*,#436,.F.);
#604=ORIENTED_EDGE('',*,*,#603,.T.);
#605=EDGE_LOOP('',(#595,#596,#597,#599,#600,#601,#602,#604));
#606=FACE_OUTER_BOUND('',#605,.F.);
#607=ADVANCED_FACE('',(#606),#594,.T.);
#608=CARTESIAN_POINT('',(-7.E0,1.375E0,-7.5E-1));
#609=DIRECTION('',(-1.E0,0.E0,0.E0));
#610=DIRECTION('',(0.E0,-1.E0,0.E0));
#611=AXIS2_PLACEMENT_3D('',#608,#609,#610);
#612=PLANE('',#611);
#613=ORIENTED_EDGE('',*,*,#318,.F.);
#614=ORIENTED_EDGE('',*,*,#478,.T.);
#615=ORIENTED_EDGE('',*,*,#496,.T.);
#616=ORIENTED_EDGE('',*,*,#598,.F.);
#617=EDGE_LOOP('',(#613,#614,#615,#616));
#618=FACE_OUTER_BOUND('',#617,.F.);
#619=ADVANCED_FACE('',(#618),#612,.T.);
#620=CARTESIAN_POINT('',(-8.75E-1,-6.25E-1,0.E0));
#621=DIRECTION('',(0.E0,-1.E0,0.E0));
#622=DIRECTION('',(1.E0,0.E0,0.E0));
#623=AXIS2_PLACEMENT_3D('',#620,#621,#622);
#624=CYLINDRICAL_SURFACE('',#623,3.8E-1);
#625=ORIENTED_EDGE('',*,*,#603,.F.);
#626=ORIENTED_EDGE('',*,*,#434,.T.);
#628=ORIENTED_EDGE('',*,*,#627,.T.);
#629=ORIENTED_EDGE('',*,*,#387,.F.);
#630=EDGE_LOOP('',(#625,#626,#628,#629));
#631=FACE_OUTER_BOUND('',#630,.F.);
#632=ADVANCED_FACE('',(#631),#624,.F.);
#633=CARTESIAN_POINT('',(0.E0,8.75E-1,0.E0));
#634=DIRECTION('',(0.E0,-1.E0,0.E0));
#635=DIRECTION('',(1.E0,0.E0,0.E0));
#636=AXIS2_PLACEMENT_3D('',#633,#634,#635);
#637=PLANE('',#636);
#638=ORIENTED_EDGE('',*,*,#460,.F.);
#639=ORIENTED_EDGE('',*,*,#389,.F.);
#640=ORIENTED_EDGE('',*,*,#627,.F.);
#641=ORIENTED_EDGE('',*,*,#432,.F.);
#642=EDGE_LOOP('',(#638,#639,#640,#641));
#643=FACE_OUTER_BOUND('',#642,.F.);
#644=ADVANCED_FACE('',(#643),#637,.T.);
#645=CLOSED_SHELL('',(#342,#357,#373,#398,#410,#424,#448,#469,#483,#511,#525,
#537,#550,#563,#576,#589,#607,#619,#632,#644));
#646=MANIFOLD_SOLID_BREP('',#645);
#647=DIMENSIONAL_EXPONENTS(1.E0,0.E0,0.E0,0.E0,0.E0,0.E0,0.E0);
#648=(LENGTH_UNIT()NAMED_UNIT(*)SI_UNIT(.MILLI.,.METRE.));
#649=LENGTH_MEASURE_WITH_UNIT(LENGTH_MEASURE(2.54E1),#648);
#650=(CONVERSION_BASED_UNIT('INCH',#649)LENGTH_UNIT()NAMED_UNIT(#647));
#651=DIMENSIONAL_EXPONENTS(0.E0,0.E0,0.E0,0.E0,0.E0,0.E0,0.E0);
#652=(NAMED_UNIT(*)PLANE_ANGLE_UNIT()SI_UNIT($,.RADIAN.));
#653=PLANE_ANGLE_MEASURE_WITH_UNIT(PLANE_ANGLE_MEASURE(1.745329251994E-2),#652);
#654=(CONVERSION_BASED_UNIT('DEGREE',#653)NAMED_UNIT(#651)PLANE_ANGLE_UNIT());
#655=(NAMED_UNIT(*)SI_UNIT($,.STERADIAN.)SOLID_ANGLE_UNIT());
#656=UNCERTAINTY_MEASURE_WITH_UNIT(LENGTH_MEASURE(8.024055947775E-4),#650,
'closure',
'Maximum model space distance between geometric entities at asserted connectivities');
#657=(GEOMETRIC_REPRESENTATION_CONTEXT(3)GLOBAL_UNCERTAINTY_ASSIGNED_CONTEXT((
#656))GLOBAL_UNIT_ASSIGNED_CONTEXT((#650,#654,#655))REPRESENTATION_CONTEXT
('ID1','3'));
#659=APPLICATION_CONTEXT(
'CONFIGURATION CONTROLLED 3D DESIGNS OF MECHANICAL PARTS AND ASSEMBLIES');
#660=APPLICATION_PROTOCOL_DEFINITION('international standard',
'config_control_design',1994,#659);
#661=DESIGN_CONTEXT('',#659,'design');
#662=MECHANICAL_CONTEXT('',#659,'mechanical');
#663=PRODUCT('91601602','91601602','NOT SPECIFIED',(#662));
#664=PRODUCT_DEFINITION_FORMATION_WITH_SPECIFIED_SOURCE('','LAST_VERSION',#663,
.MADE.);
#668=PRODUCT_CATEGORY('part','');
#669=PRODUCT_RELATED_PRODUCT_CATEGORY('detail','',(#663));
#670=PRODUCT_CATEGORY_RELATIONSHIP('','',#668,#669);
#671=SECURITY_CLASSIFICATION_LEVEL('unclassified');
#672=SECURITY_CLASSIFICATION('','',#671);
#673=CC_DESIGN_SECURITY_CLASSIFICATION(#672,(#664));
#674=APPROVAL_STATUS('approved');
#675=APPROVAL(#674,'');
#676=CC_DESIGN_APPROVAL(#675,(#672,#664,#665));
#677=CALENDAR_DATE(104,13,10);
#678=COORDINATED_UNIVERSAL_TIME_OFFSET(4,0,.BEHIND.);
#679=LOCAL_TIME(16,32,2.3E1,#678);
#680=DATE_AND_TIME(#677,#679);
#681=APPROVAL_DATE_TIME(#680,#675);
#682=DATE_TIME_ROLE('creation_date');
#683=CC_DESIGN_DATE_AND_TIME_ASSIGNMENT(#680,#682,(#665));
#684=DATE_TIME_ROLE('classification_date');
#685=CC_DESIGN_DATE_AND_TIME_ASSIGNMENT(#680,#684,(#672));
#686=PERSON('UNSPECIFIED','UNSPECIFIED',$,$,$,$);
#687=ORGANIZATION('UNSPECIFIED','UNSPECIFIED','UNSPECIFIED');
#688=PERSON_AND_ORGANIZATION(#686,#687);
#689=APPROVAL_ROLE('approver');
#690=APPROVAL_PERSON_ORGANIZATION(#688,#675,#689);
#691=PERSON_AND_ORGANIZATION_ROLE('creator');
#692=CC_DESIGN_PERSON_AND_ORGANIZATION_ASSIGNMENT(#688,#691,(#664,#665));
#693=PERSON_AND_ORGANIZATION_ROLE('design_supplier');
#694=CC_DESIGN_PERSON_AND_ORGANIZATION_ASSIGNMENT(#688,#693,(#664));
#695=PERSON_AND_ORGANIZATION_ROLE('classification_officer');
#696=CC_DESIGN_PERSON_AND_ORGANIZATION_ASSIGNMENT(#688,#695,(#672));
#697=PERSON_AND_ORGANIZATION_ROLE('design_owner');
#698=CC_DESIGN_PERSON_AND_ORGANIZATION_ASSIGNMENT(#688,#697,(#663));
#5=CIRCLE('',#4,3.1325E-1);
#10=CIRCLE('',#9,3.1325E-1);
#15=CIRCLE('',#14,3.7525E-1);
#20=CIRCLE('',#19,3.7525E-1);
#49=CIRCLE('',#48,3.1325E-1);
#54=CIRCLE('',#53,3.1325E-1);
#59=CIRCLE('',#58,6.3E-1);
#76=CIRCLE('',#75,3.1325E-1);
#81=CIRCLE('',#80,3.1325E-1);
#86=CIRCLE('',#85,6.3E-1);
#95=CIRCLE('',#94,6.3E-1);
#104=CIRCLE('',#103,6.3E-1);
#113=CIRCLE('',#112,6.3E-1);
#122=CIRCLE('',#121,6.3E-1);
#127=CIRCLE('',#126,3.1325E-1);
#132=CIRCLE('',#131,3.1325E-1);
#137=CIRCLE('',#136,3.7525E-1);
#142=CIRCLE('',#141,3.7525E-1);
#183=CIRCLE('',#182,6.3E-1);
#196=CIRCLE('',#195,6.3E-1);
#217=CIRCLE('',#216,3.8E-1);
#234=CIRCLE('',#233,3.8E-1);
#316=EDGE_CURVE('',#302,#241,#24,.T.);
#318=EDGE_CURVE('',#241,#242,#28,.T.);
#320=EDGE_CURVE('',#242,#280,#32,.T.);
#322=EDGE_CURVE('',#284,#280,#196,.T.);
#324=EDGE_CURVE('',#284,#304,#36,.T.);
#326=EDGE_CURVE('',#302,#304,#95,.T.);
#330=EDGE_CURVE('',#249,#250,#5,.T.);
#332=EDGE_CURVE('',#250,#249,#10,.T.);
#336=EDGE_CURVE('',#257,#258,#15,.T.);
#338=EDGE_CURVE('',#258,#257,#20,.T.);
#348=EDGE_CURVE('',#273,#274,#49,.T.);
#350=EDGE_CURVE('',#274,#250,#67,.T.);
#353=EDGE_CURVE('',#273,#249,#40,.T.);
#363=EDGE_CURVE('',#277,#278,#76,.T.);
#365=EDGE_CURVE('',#253,#277,#44,.T.);
#367=EDGE_CURVE('',#253,#254,#127,.T.);
#369=EDGE_CURVE('',#254,#278,#71,.T.);
#379=EDGE_CURVE('',#308,#310,#104,.T.);
#381=EDGE_CURVE('',#294,#310,#174,.T.);
#383=EDGE_CURVE('',#294,#266,#59,.T.);
#385=EDGE_CURVE('',#265,#266,#204,.T.);
#387=EDGE_CURVE('',#265,#290,#63,.T.);
#389=EDGE_CURVE('',#290,#308,#229,.T.);
#394=EDGE_CURVE('',#274,#273,#54,.T.);
#416=EDGE_CURVE('',#278,#277,#81,.T.);
#419=EDGE_CURVE('',#254,#253,#132,.T.);
#430=EDGE_CURVE('',#306,#298,#113,.T.);
#432=EDGE_CURVE('',#306,#289,#238,.T.);
#434=EDGE_CURVE('',#269,#289,#225,.T.);
#436=EDGE_CURVE('',#269,#270,#212,.T.);
#438=EDGE_CURVE('',#292,#270,#86,.T.);
#440=EDGE_CURVE('',#292,#298,#170,.T.);
#454=EDGE_CURVE('',#300,#302,#90,.T.);
#457=EDGE_CURVE('',#310,#304,#99,.T.);
#460=EDGE_CURVE('',#308,#306,#108,.T.);
#463=EDGE_CURVE('',#297,#298,#117,.T.);
#465=EDGE_CURVE('',#297,#300,#122,.T.);
#476=EDGE_CURVE('',#300,#245,#158,.T.);
#478=EDGE_CURVE('',#241,#245,#221,.T.);
#490=EDGE_CURVE('',#286,#297,#146,.T.);
#492=EDGE_CURVE('',#282,#286,#183,.T.);
#494=EDGE_CURVE('',#246,#282,#150,.T.);
#496=EDGE_CURVE('',#245,#246,#154,.T.);
#505=EDGE_CURVE('',#261,#262,#137,.T.);
#507=EDGE_CURVE('',#262,#261,#142,.T.);
#518=EDGE_CURVE('',#261,#257,#162,.T.);
#521=EDGE_CURVE('',#262,#258,#166,.T.);
#545=EDGE_CURVE('',#286,#292,#187,.T.);
#557=EDGE_CURVE('',#294,#284,#191,.T.);
#570=EDGE_CURVE('',#282,#270,#178,.T.);
#585=EDGE_CURVE('',#266,#280,#200,.T.);
#598=EDGE_CURVE('',#242,#246,#208,.T.);
#603=EDGE_CURVE('',#269,#265,#217,.T.);
#627=EDGE_CURVE('',#289,#290,#234,.T.);
#658=ADVANCED_BREP_SHAPE_REPRESENTATION('',(#646),#657);
#665=PRODUCT_DEFINITION('design','',#664,#661);
#666=PRODUCT_DEFINITION_SHAPE('','SHAPE FOR 91601602.',#665);
#667=SHAPE_DEFINITION_REPRESENTATION(#666,#658);
ENDSEC;
END-ISO-10303-21;
